» » »

Misc Christmas, Ill Be Home For Christmas Tabs (ver.2)

Artists:  A B C D E F G H I J K L M N O P Q R S T U V W X Y Z # 

Ill Be Home For Christmas Tabs (ver.2)

Misc Christmas Tabs
 Rating:
4/5 (4 votes)
Ill Be Home For Christmas lessons Tabs too difficult? Try these video lessons and learn fast
1
                -------------------------------------------------------------------------------
                             I'll Be Home For Christmas - Misc Christmas
-------------------------------------------------------------------------------


One of the best Christmas songs. This is the main riff, it actually sounds really 
good in a blues context.


Tuning: Standard

e|---------------------------------------------------------------------------|
B|---------------------------------------------------------------------------|
G|---------------------------------------------------------------------------|
D|---/9---7----9-----7-------------------------------------------------------|
A|------------------------7----7~-----/9------7------9------7----------------|
E|--------------------------------------------------------------7~-----------|

e|---------------------------------------------------------------------------|
B|---------------------------------------------------------------------------|
G|---------------------------------------------------------------------------|
D|---------------------------------------7-----------9-----9~-----9----7-----|
A|---------------7-----------7-----9-----------9-----------------------------|
E|---7-----9-----------9-----------------------------------------------------|

e|---------------------------------------------------------------------------|
B|---------------------------------------------------------------------------|
G|---------------------------------------------------------------------------|
D|---------------------------------------------------------------------------|
A|---5------5/7~-------------------------------------------------------------|
E|---------------------------------------------------------------------------|

Repeat

Use a bluesish rhythm. It sounds great, hope you enjoy it as well. Use it for a lady maybe :)

Merry Christmas


| /  slide up
| \  slide down
| h  hammer-on
| p  pull-off
| ~  vibrato
| +  harmonic
| x  Mute note
===============================================================================
            
Submit corrections

comments powered by Disqus
↑ Back to top | Misc Christmas Tabs for Ill Be Home For Christmas. Lyrics for acoustic guitar and electric guitar. 1 Tablatures and chords are parodies/interpretations of the original songs. You may use it for private study, scholarship, research or language learning purposes only