>
 >
Have Yourself A Merry Little Christmas

Have Yourself A Merry Little Christmas Guitar Tabs

Misc Christmas - Have Yourself A Merry Little Christmas chords, tabs, tablatures, lyrics

Guitar lessons | Add/correct | Request | Top 50 tabs Artists:  A B C D E F G H I J K L M N O P Q R S T U V W X Y Z 0-9

Have Yourself A Merry Little Christmas Guitar Tabs – Misc Christmas

CD, Sheet music, Poster

Do you like Have Yourself A Merry Little Christmas? Share with your friends now
ChordsChords v2Chords v3Chords v4Chords v5TabsTabs v2Tabs v3Ukulele
-------------------------------------------------------------------------------
			     Have Yourself A Merry Little Christmas
-------------------------------------------------------------------------------
Tuning: standard

This is my way of playing a classic christmas song! I'm going to put a link to a 
video on here when I upload that....

e|-------------8----------------------------------8---3----------------------|
B|-----5----8--8---8-6-5------------------5----8--8---3---4------------------|
G|--5--5----9------5-----7--/5---7-----5--5----9------5---4------------------|
D|--5--------------7-------------9-----5--------------3----------------------|
A|--7-------7------5-------------8-----7-------7------5----------------------|
E|--8----------------------------------8--------------3---3------------------|

    
e|---------------12-----10--8\7----------------0---5--------3----------------|
B|-----8----13---13-----10-------10--8--6------5---5----5---3----------------|
G|--9--9----14----------10-----------9--5------7---6----5---4----------------|
D|--7-------12----------------------10--7------6---5----4---3----------------|
A|-(7)-----------------------------------------7---7----5---5----------------|
E|-------------------------------------------------5--------3----------------|


e|-------------8----------------------------------8---3----------------------|
B|-----5----8--8---8-6-5------------------5----8--8---3---4------------------|
G|--5--5----9------5-----7--/5---7-----5--5----9------5---4------------------|
D|--5--------------7-------------9-----5--------------3----------------------|
A|--7-------7------5-------------8-----7-------7------5----------------------|
E|--8----------------------------------8--------------3---3------------------|


e|---------------12-----10--8\7---------7----8-----------8----8--------------|
B|-----8----13---13-----10-------10--9--9----8-----------8----8--------------|
G|--9--9----14----------10-----------7-------9-----------10---9--------------|
D|--7-------12-----------------------9-------7-----------8----8--------------|
A|-(7)-------------------------------7-------------------10---10-------------|
E|-------------------------------------------------------8----8--------------|
                                                         
									(optional walk-up)
e|--12--12---12----10p8--7-8-10---8\7----5--7--8--7--(3)---------------------|
B|--10--10---9-----9-----8-8-8----8\7----6--6--6--6---5---6--7--8------------|
G|--9---9----9-----------7---------------7--7--7--7---4---5--6--7------------|
D|-----------------------9---------------5------------5---7--7--9------------|
A|--8---8----8-----------7---------------5------------3---5--6--7------------|
E|---------------------------------------------------------------------------|


e|--8---8---8--------------------7----7--8----10-----------3-----------------|
B|--10--10--10---12\10---8---10--8----6-------9-------/3---3---4-------------|
G|--9---9---9------------7-------7----7-------10-----------5---4-------------|
D|----------9------------9------------5-------8------------3-----------------|
A|--9---9----------------7------------5-------8------------5-----------------|
E|---------------------------------------------------------3---3-------------|


e|-------------8----------------------------------8---3----------------------|
B|-----5----8--8---8-6-5------------------5----8--8---3---4------------------|
G|--5--5----9------5-----7--/5---7-----5--5----9------5---4------------------|
D|--5--------------7-------------9-----5--------------3----------------------|
A|--7-------7------5-------------8-----7-------7------5----------------------|
E|--8----------------------------------8--------------3---3------------------|


e|---------------12----13--12------------------------------------------------|
B|-----8----13---13----12-----15-13-12--15---13--12--11--10------------------|
G|--9--9----14---------12---------------12---12--11--10--9-------------------|
D|--7-------12-------------------------------14--13--12--11------------------|
A|-(7)-----------------------------------------------------------------------|
E|---------------------------------------------------------------------------|


e|--12---------8-----12--10--8\7---5--7----8---------------------------------|
B|--10-----10--------10------------6--6----10--------------------------------|
G|--9---10-----------10------------7--7----9---------------------------------|
D|---------------------------------5--5----8---------------------------------|
A|--8------------------------------5--5----10--------------------------------|
E|-----------------------------------------8---------------------------------|

| /  slide up
| \  slide down
| h  hammer-on
| p  pull-off
| ~  vibrato
| +  harmonic
| x  Mute note





Comments


Popular Misc Christmas tabs & chords
I Heard The Bells On Christmas Day Chords
Ill Be Home For Christmas 1 Chords
The 12 Days Of Christmas Chords
El Nio Del Tambor Tabs
Frosty The Snowman 3 Tabs
Hark The Herald Angels Sing Tabs
Hark The Herald Angels Sing 4 Tabs
Joy To The World Tabs
We Three Kings 2 Tabs
What Child Is This Ukulele


Song lyrics



↑ Back to top | Tablatures and chords are parodies/interpretations of the original songs. You may use it for private study, scholarship, research or language learning purposes only
© 2014 AZChords.com Contact us | Privacy policy | DMCA | Add/correct tabs | Request tabs | Top 50 tabs