» » »

Hark The Herald Angels Sing Tabs (ver.4)

Artists:  A B C D E F G H I J K L M N O P Q R S T U V W X Y Z # 

Hark The Herald Angels Sing Tabs (ver.4)

Misc Christmas
Rating:
0/5 (0 votes)

Hard to play? Try these video lessons and learn fast.
                First tab....please be nice. :)


e|----------2-2-0--5-5-5-32-0-2-|---------2-2-0-5-0-0-------------|
B|---3-3-23---------------------|--3-3-23-------------32-0--------|
G|-2----------------------------|2-------------------------2------|
D|------------------------------|---------------------------------|
A|------------------------------|---------------------------------|
E|------------------------------|---------------------------------|

e|-5-5-5---3-2-2-0--5-5-5---3-2-2-0|
B|-------3----------------3--------|
G|---------------------------------|
D|---------------------------------|
A|---------------------------------|
E|---------------------------------|

e|-7-77-5-3-2-3--0-2-3-5------2|
B|-----------------------33-5--|
G|-----------------------------|
D|-----------------------------|
A|-----------------------------|
E|-----------------------------|  



e|----------2-2-0--5-5-5-32-0-2-|---------2-2-0-5-0-0-------------|
B|---3-3-23---------------------|--3-3-23-------------32-0--------|
G|-2----------------------------|2-------------------------2------|
D|------------------------------|---------------------------------|
A|------------------------------|---------------------------------|
E|------------------------------|---------------------------------|

e|-5-5-5---3-2-2-0--5-5-5---3-2-2-0|
B|-------3----------------3--------|
G|---------------------------------|
D|---------------------------------|
A|---------------------------------|
E|---------------------------------|

e|-7-77-5-3-2-3--0-2-3-5-------|
B|-----------------------33-5-3|
G|-----------------------------|
D|-----------------------------|
A|-----------------------------|
E|-----------------------------|   
            
Hard to play? Try these video lessons and learn fast. | Correct




comments powered by Disqus
↑ Back to top | Tablatures and chords are parodies/interpretations of the original songs. You may use it for private study, scholarship, research or language learning purposes only