» » »

Grinch Tabs (ver.1)

Artists:  A B C D E F G H I J K L M N O P Q R S T U V W X Y Z # 

Grinch Tabs (ver.1)

Misc Christmas
Rating:
0/5 (0 votes)

Hard to play? Try these video lessons and learn fast.
                -------------------------------------------------------------------------------
                             Mr. Grinch - The Ho Ho Holidays
-------------------------------------------------------------------------------

Tuning: Standard!!!

HEAVY DISTORTION!


This repeats 2 times
e|------------------------------------------------------------------------------------|
B|------------------------------------------------------------------------------------|
G|------------------------------------------------------------------------------------|
D|------------------------------------------------------------------------------------|
A|-------------------3-2-0---3-2-0----------------------------------------------------|
E|-0-2-0--0-2-0--0--------------------------------------------------------------------|

ON THE 3 2 0 part on the A do it as a pull of down really fast


Now do the same but with another eletric guitar >:-D

Now higer after two times with 2 guitars
e|------------------------------------------------------------------------------------|
B|------------------------------------------------------------------------------------|
G|------------------------------------------------------------------------------------|
D|------------------3-2-0-3-2-0-------------------------------------------------------|
A|--0-2-0--0-2-0-0--------------------------------------------------------------------|
E|------------------------------------------------------------------------------------|


AGAIN SLIDE DOWN!!!

SOLO:
Sweet H)

e|-------------0-7-9-12--15-19b----------------|
B|-------------------------------12h-15 TWICE--|
G|---------------------------------------------|
D|---------------------------------------------|
A|---------------------------------------------|
E|---------------------------------------------|

Repeat begging after the solo, and repeat it twice!!!!

| /  slide up
| \  slide down
| h  hammer-on
| p  pull-off
| ~  vibrato
| +  harmonic
| x  Mute note
===============================================================================
            
Hard to play? Try these video lessons and learn fast. | Correct




comments powered by Disqus
↑ Back to top | Tablatures and chords are parodies/interpretations of the original songs. You may use it for private study, scholarship, research or language learning purposes only