» » »

Good King Wenceslas Tabs (ver.3)

Artists:  A B C D E F G H I J K L M N O P Q R S T U V W X Y Z # 

Good King Wenceslas Tabs (ver.3)

Misc Christmas
Rating:
0/5 (0 votes)

Hard to play? Try these video lessons and learn fast.
                good king wencesles

e|------------------------------------------------------|
B|------------------------------------------------------|
G|0-0-0-2-0-0------------0-0--0-0-0-2-0-0------------0-0|
D|------------0--2-0-2-4------------------0--2-0-2-4----|
A|------------------------------------------------------|
E|------------------------------------------------------|

e|--------------------------------------------------------|
B|3-1-0---0----------------------------------3-1-0-----1--|
G|------2---2-0----------0-0----------0-0-2--------2-0---0|
D|---------------2-0-2-4------0-0-2-4---------------------|
A|--------------------------------------------------------|
E|--------------------------------------------------------|
            
Hard to play? Try these video lessons and learn fast. | Correct




comments powered by Disqus
↑ Back to top | Tablatures and chords are parodies/interpretations of the original songs. You may use it for private study, scholarship, research or language learning purposes only