» » »

Misc Christmas, God Rest Ye Merry Gentlemen Tabs (ver.3)

Artists:  A B C D E F G H I J K L M N O P Q R S T U V W X Y Z # 

God Rest Ye Merry Gentlemen Tabs (ver.3)

Misc Christmas Tabs
 Rating:
4/5 (4 votes)
God Rest Ye Merry Gentlemen lessons Tabs too difficult? Try these video lessons and learn fast
                Guitar I (EADGBe)- Electric w/ attack wah and slight phaser
Guitar II (EADGBe)- Electric w/ heavy overdrive and distortion
Guitar III (EADGBe)- Acoustic
Guitar IV (EADG)- Bass w/ heavy distortion


 Guitar IV (plays all through song)
|-----------------|
|-----------------|
|---2-3-0-2---0---|
|-0---------3---2-|


Intro

 Guitar I
|-12--10----------------------------------------------(12)-|
|---------13--12-10----------------------------------------|
|-------------------12-10-10h12p10h12p10h12p10h12\9~~------|
|----------------------------------------------------------|
|----------------------------------------------------------|
|----------------------------------------------------------|

Verse

 Guitar I
|------------------------------------------------------------------------|
|--------12-12-10--------------------10-10h12-12h13p12h13p12h13p12h13p12-|
|-/9~-9~----------12-11-9----9-11-12-------------------------------------|
|-------------------------12---------------------------------------------|
|------------------------------------------------------------------------|
|------------------------------------------------------------------------|
|
|
|Guitar II
|----------------|
|----------------|
|-999-x-9-9-x-x--|
|-999-x-9-9-x-x--|
|-777-x-7-7-x-x--|
|----------------|
|
|
|Guitar III
|------------------------------------------|
|------------------------------------------|
|------------------------------------------|
|-------9-9-7------------------7-9~--------|
|-7--7--------10-9-7----7-9-10-------------|
|--------------------10--------------------|

REPEAT


 Guitar I
|----------------10h12-----------------------|
|-12h13p10h12h13-------12-10------------(10)-|
|----------------------------12-9h11h12------|
|--------------------------------------------|
|--------------------------------------------|
|--------------------------------------------|
|
|
|Guitar II
|---------------|
|---------------|
|-777-x-7-7-x-x-|
|-777-x-7-7-x-x-|
|-555-x-5-5-x-x-|
|---------------|
|
|
|Guitar III
|---------------------------------|
|---------------------------------|
|-------------7-9-----------------|
|-9-10-7-9-10-----9-7-----------7-|
|---------------------10-9-7------|
|----------------------------10---|


 Guitar I
|-------------10h12-------------12-|
|----10h12h13-------12p10----------|
|-12----------------------12p11p9~-|
|----------------------------------|
|----------------------------------|
|----------------------------------|
|
|
|Guitar II
|------------|
|------------|
|-9xxxxxx9---|
|-9xxxxxx9---| let ring
|-7xxxxxx7---|
|------------|
|
|
|Guitar III
|-----------------------|
|-----------------------|
|-----------7h9------9--|
|----7h9h10-----10p9-9--|
|-10-----------------7--|
|-----------------------|


all end with an Em
            
Submit corrections

comments powered by Disqus
↑ Back to top | Misc Christmas Tabs for God Rest Ye Merry Gentlemen. Lyrics for acoustic guitar and electric guitar. Tablatures and chords are parodies/interpretations of the original songs. You may use it for private study, scholarship, research or language learning purposes only