» » »

Goder Afton Tabs (ver.1)

Artists:  A B C D E F G H I J K L M N O P Q R S T U V W X Y Z # 

Goder Afton Tabs (ver.1)

Misc Christmas
Rating:
0/5 (0 votes)

Hard to play? Try these video lessons and learn fast.
                This is a swedish christmas song. I don't know if anyone else has
it but with other lyrics, but here it is.

  Go -der  Af-ton  Go -der  Af-ton  Båd   Her-re och   fru
e|------------------------------------------------4----7~~-|
b|-7---7---4---4----7---7---4---4----7----5---5------------|
g|---------------------------------------------------------|
d|---------------------------------------------------------|
a|---------------------------------------------------------|
E|---------------------------------------------------------|


    Vi  öns-kar   ed-er   all-a  en   fröj-de-full jul.
e|--7----6---6----4--4---------------------------------------|
b|------------------------7---7---4----5----5----------------|
g|----------------------------------------------3---4--------|
d|-----------------------------------------------------------|
a|-----------------------------------------------------------|
E|-----------------------------------------------------------|


Verse 2:
Goder afton, goder afton
Välkommen var gäst
Vi önskar eder alla
en fröjdefull fest.

Please tell me if any other country has this song,
I can't remember that for example England or USA has it, but I may be wrong...

Anyway, easy song, and you will learn it quickly if you know the rythm.

Good Luck, Merry Christmas!
            
Hard to play? Try these video lessons and learn fast. | Correct




comments powered by Disqus
↑ Back to top | Tablatures and chords are parodies/interpretations of the original songs. You may use it for private study, scholarship, research or language learning purposes only