» » »

Misc Christmas, Frosty The Snowman Tabs (ver.4)

Artists:  A B C D E F G H I J K L M N O P Q R S T U V W X Y Z # 

Frosty The Snowman Tabs (ver.4)

Misc Christmas Tabs
Rating:
0/5 (0 votes)
Frosty The Snowman lessons Tabs too difficult? Try these video lessons and learn fast
                |--------1-0-1-3-1-0-----0-1-3-1-0-------1---------------------------|
|1-----1-------------3-1-----------3-3-1-----1-3-1-------1-----------|
|--2-3-------------------------------------2-------3-2-0-0-----------|
|3---------0---------------------------------------------2-----------|
|--0-----------1-------3-----1---------3---0-----3-------3-----------|
|------1-------------------------------------------------------------|

|--------1-0-1-3-1-0-----0-1-3-1-0-------1---------------------------|
|1-----1-------------3-1-----------3-3-1-----1-3-1-------------------|
|--2-3-------------------------------------2-------3-2-0-------------|
|3---------0----------------------------------------------3----------|
|--0-----------1-------3-----1---------3---0--------------3----------|
-------1-----------------------------------------3--------1----------|

|-------1-1-0----------------------------0-0-3-3-3-1-0---------------|
|---3-3-------3-1-----3-1------------1-1---------------3-1-----------|
|-----------------2-3-----3-2--2-0-0---------------------3-----------|
|-3-----0----------------------------------------0---2---2-----------|
|---1-------3-----0-1---3------0-2---3-------2-----------3-----------|
|-1-------------------------1------------3---------3-----------------|
            
Submit corrections

comments powered by Disqus
↑ Back to top | Misc Christmas Tabs for Frosty The Snowman. Lyrics for acoustic guitar and electric guitar. Tablatures and chords are parodies/interpretations of the original songs. You may use it for private study, scholarship, research or language learning purposes only