» » »

Deck The Halls Tabs (ver.10)

Artists:  A B C D E F G H I J K L M N O P Q R S T U V W X Y Z # 

Deck The Halls Tabs (ver.10)

Misc Christmas
Rating:
0/5 (0 votes)

Hard to play? Try these video lessons and learn fast.
                ----------------------------------------------------------------------------
                             Deck The Halls (The Real Rock)
----------------------------------------------------------------------------

This song should be played in alot of distortion to make it sound "rocky".

Tuning: EADGBe

e|-9-------------------------------------------------|
B|----12-11--9-7-9-9/11\7---9-11-12-9-11-9-7-6-7-----|
G|---------------------------------------------------| x2
D|---------------------------------------------------|
A|---------------------------------------------------|
E|---------------------------------------------------|

e|-----------------9------------------9--14-13-9~------|
B|-9-11-12-9-11-12---9--9-11-12-11-12------------------|
G|-----------------------------------------------------|
D|-----------------------------------------------------|
A|-----------------------------------------------------|
E|-----------------------------------------------------|

e|-9-------------------------------------------------|
B|----12-11--9-7-9-9/11\7---9-11-12-9-11-9-7-6-7-----|
G|---------------------------------------------------| x2
D|---------------------------------------------------|
A|---------------------------------------------------|
E|---------------------------------------------------|

well you get the rest... peace \m/(-__-) \m/
            
Hard to play? Try these video lessons and learn fast. | Correct




comments powered by Disqus
↑ Back to top | Tablatures and chords are parodies/interpretations of the original songs. You may use it for private study, scholarship, research or language learning purposes only