» » »

Deck The Halls Tabs (ver.8)

Artists:  A B C D E F G H I J K L M N O P Q R S T U V W X Y Z # 

Deck The Halls Tabs (ver.8)

Misc Christmas
Rating:
0/5 (0 votes)

Hard to play? Try these video lessons and learn fast.
                Deck The Halls Harmony

This sounds so awesome me and my buds sounded this out 1 is in the ug community

 Deck the halls with boughs of holly fa la la la la  la la la la
E|-14---12-10-------------10---------10-12----10---------------|
B|------------13---12-13-----13---13-------13-----13-12--10-12-|
G|-------------------------------------------------------------|
D|-------------------------------------------------------------|
A|-------------------------------------------------------------|
E|-------------------------------------------------------------|
 'Tis the season to be jolly fa la la la la la la la la

E|-14---12-10--------------10--------10-12----10---------------|
B|------------13---12-13-----13---13-------13-----13-12--10-12-|
G|-------------------------------------------------------------|
D|-------------------------------------------------------------|
A|-------------------------------------------------------------|
E|-------------------------------------------------------------|

Don we now our gay apparel fa la la la la la la la la
E|-----10-12-----10--12-14---10-12-14--16-17-19--17--16------|
B|-13-------13------------13----------------------------19---|
G|-----------------------------------------------------------|
D|-----------------------------------------------------------|
A|-----------------------------------------------------------|
E|-----------------------------------------------------------|
   Troll the ancient yuletide carol fa la la la la la la la la
E|-14--12-10----------10-----16-16-16-16-14---12-10----------|
B|----------13--12-13---13-------------------------13-12-----|
G|-----------------------------------------------------------|
D|-----------------------------------------------------------|
A|-----------------------------------------------------------|
E|-----------------------------------------------------------|

Play whole thing twice
This is a harmony guitar part and is not supposed to be a copy of the song. This is a 
pitched backing to a solo to make it harmonized, but of course you can play this as just 
original deck the halls. Thisalso sounds great with distortion.
            
Hard to play? Try these video lessons and learn fast. | Correct




comments powered by Disqus
↑ Back to top | Tablatures and chords are parodies/interpretations of the original songs. You may use it for private study, scholarship, research or language learning purposes only