» » »

Misc Christmas, Deck The Halls Tabs (ver.7)

Artists:  A B C D E F G H I J K L M N O P Q R S T U V W X Y Z # 

Deck The Halls Tabs (ver.7)

Misc Christmas Tabs
 Rating:
4/5 (4 votes)
Deck The Halls lessons Tabs too difficult? Try these video lessons and learn fast
                This tab has a little bit of a solo sound to it. I didn't include any slides, bends, or 
or pull offs because there's so many variety of ways to use them. This is tuned to E. (E,A,D,G,B,e)


|---------------|-------------|-------------------|-----------|
|*--22-20-19----|-------19----|----19-20----19----|----------*|
|------------21-|-19-21----19-|-21-------21----21-|-19----19--|
|---------------|-------------|-------------------|----23-----|
|*--------------|-------------|-------------------|----------*|
|---------------|-------------|-------------------|-----------|

|---------------|-------------|----------19-21-22-|-21-19-----|
|-----19-20-----|-19-20-22----|-19-21-22----------|-------22--|
|--21-------21--|----------21-|-------------------|-----------|
|---------------|-------------|-------------------|-----------|
|---------------|-------------|-------------------|-----------|
|---------------|-------------|-------------------|-----------|

|---------------|-------------|-19-19-19-19-------|-----------|
|--22-20-19-----|-------19----|-------------22-20-|-19--------|
|-----------21--|-19-21----19-|-------------------|----21-19--|
|---------------|-------------|-------------------|-----------|
|---------------|-------------|-------------------|-----------|
|---------------|-------------|-------------------|-----------|

Enjoy!
            
Submit corrections

comments powered by Disqus
↑ Back to top | Misc Christmas Tabs for Deck The Halls. Lyrics for acoustic guitar and electric guitar. Tablatures and chords are parodies/interpretations of the original songs. You may use it for private study, scholarship, research or language learning purposes only