» » »

Deck The Halls Bass tabs (ver.2)

Artists:  A B C D E F G H I J K L M N O P Q R S T U V W X Y Z # 

Deck The Halls Bass tabs (ver.2)

Misc Christmas
Rating:
0/5 (0 votes)

Hard to play? Try these video lessons and learn fast.
                ------------------------------------------------------------------------
		  Deck the halls - Misc Christmas
------------------------------------------------------------------------


Tuning: standard
                                                    Repeat.
G|-15-13-12----------12----|----12h13----12---------------|
D|----------15-13-15----13-|-15-------15----15-13-12-13--*|
A|-------------------------|-----------------------------*|
E|-------------------------|------------------------------|

G|----12-13----12-13-15----|-12-13-15-17-19-20-19-17-15---|
D|-15-------15----------15-|------------------------------|
A|-------------------------|------------------------------|
E|-------------------------|------------------------------|

G|-15-13-12----------12----|-17-17-17-17-15-13-12--------||
D|----------15-13-15----13-|----------------------15-12--||
A|-------------------------|-----------------------------||
E|-------------------------|-----------------------------||


| /  slide up
| \  slide down
| h  hammer-on
| p  pull-off
| ~  vibrato
| +  harmonic
| x  Mute note
========================================================================
            
Hard to play? Try these video lessons and learn fast. | Correct




comments powered by Disqus
↑ Back to top | Tablatures and chords are parodies/interpretations of the original songs. You may use it for private study, scholarship, research or language learning purposes only