» » »

Misc Christmas, Deck The Halls Ukulele Chords (ver.1)

Artists:  A B C D E F G H I J K L M N O P Q R S T U V W X Y Z # 

Deck The Halls Ukulele Chords (ver.1)

Misc Christmas Tabs
Rating:
0/5 (0 votes)
Deck The Halls lessons Tabs too difficult? Try these video lessons and learn fast
                ---------------------------------------------------------------------------
                           Deck the Hall
---------------------------------------------------------------------------

Tuning: Standard

---------------------------------------------------------------------------

  D                Bm  A   D        A       D        Bm  A   D
e|----------------|----------------|----------------|----------------|
B|----------------|----------------|----------------|----------------|
G|2---------------|----------------|----------------|----------------|
D|------5-4---2---|----2---4-------|2-4-5-2-4-----2-|----------------|
A|----------------|5-----------5---|----------------|5---4---5-------|
E|----------------|----------------|----------------|----------------|

  D                Bm  A   D        A       D        Bm  A   D
e|----------------|----------------|----------------|----------------|
B|----------------|----------------|----------------|----------------|
G|2---------------|----------------|----------------|----------------|
D|------5-4---2---|----2---4-------|2-4-5-2-4-----2-|----------------|
A|----------------|5-----------5---|----------------|5---4---5-------|
E|----------------|----------------|----------------|----------------|

  A                D           A/C# D       Bm       E       A
e|----------------|----------------|----------------|----------------|
B|----------------|----------------|----------2-3---|2---------------|
G|----------------|--------2-------|----2---4-------|----4---2-------|
D|2-----4-5---2---|4-----5-----2---|4-5-------------|----------------|
A|----------------|----------------|----------------|----------------|
E|----------------|----------------|----------------|----------------|

  D                Bm  A   D        G       D        Bm  A   D
e|----------------|----------------|----------------|----------------|
B|----------------|----------------|----------------|----------------|
G|2---------------|----------------|4-4-4-4-2-------|----------------|
D|------5-4---2---|----2---4-------|--------------5-|4---2-----------|
A|----------------|5-----------5---|----------------|--------5-------|
E|----------------|----------------|----------------|----------------|

---------------------------------------------------------------------------
CHORDS

      E-A-D-G-B-E
A/C#  x-4-2-2-2-x

---------------------------------------------------------------------------

D                  Bm     A  D
Deck the hall with boughs of holly,
A           D     Bm A  D
Fa la la la la la la la la.
 D              Bm A  D
'Tis the season to be jolly,
A           D     Bm A  D
Fa la la la la la la la la.
A              D       A/C#
Don we now our gay apparel
D        Bm       E     A
Fa la la la la la la la la.
D                 Bm    A   D
Troll the ancient Christmas carol,
G           D     Bm A  D
Fa la la la la la la la la.

| G D | Bm A D / |

D               Bm   A D
See the blazing yule before us,
A           D     Bm A  D
Fa la la la la la la la la.
D                    Bm  A   D
Strike the harp and join the chorus.
A           D     Bm A  D
Fa la la la la la la la la.
A            D        A/C#
Follow me in merry measure,
D        Bm       E     A
Fa la la la la la la la la.
D               Bm    A   D
While I tell of Christmas treasure,
G           D     Bm A  D
Fa la la la la la la la la.

| G D | Bm A D / |

D             Bm  A    D
Fast away the old year passes,
A           D     Bm A  D
Fa la la la la la la la la.
D                Bm   A   D
Hail the new, ye lads and lasses!
A           D     Bm A  D
Fa la la la la la la la la.
A              D       A/C#
Sing we joyous all together,
D        Bm       E     A
Fa la la la la la la la la.
D               Bm   A   D
Heedless of the wind and weather,
G           D     Bm A  D
Fa la la la la la la la la. 

| G D | Bm A D / |
            
Submit corrections

comments powered by Disqus
↑ Back to top | Misc Christmas Ukulele for Deck The Halls. Lyrics for acoustic guitar and electric guitar. Tablatures and chords are parodies/interpretations of the original songs. You may use it for private study, scholarship, research or language learning purposes only