» » »

Deck The Boughs Tabs (ver.1)

Artists:  A B C D E F G H I J K L M N O P Q R S T U V W X Y Z # 

Deck The Boughs Tabs (ver.1)

Misc Christmas
Rating:
0/5 (0 votes)

Hard to play? Try these video lessons and learn fast.
                Deck the Halls with Boughs of Holly


  C       G        F       C        F       C        F  G  C
|-3-----1-0------|---------0------|---0-1---0------|----------------|
|-------------3--|-1---3------1---|-3-----3-------3|-1---0---1------|
|-----0-------0--|----------------|-------------0--|-------------0--|
|----------------|-----3------2---|-----3----------|----------------|
|-3--------------|---------3------|---------3------|---------3------|
|---------3------|-1--------------|-1--------------|-1---3----------|
  |   |   |   |    |   |   |   |    |   |   |   |    |   |   |   |

          G        F       C        F      C         F   G   C
|-3-----1-0------|---------0------|---0-1---0------|----------------|
|-------------3--|-1---3-------1--|-3-----3-------3|-1---0---1------|
|-----0-------0--|----------------|-------------0--|----------------|
|----------------|-----3-------2--|-----3----------|---------3------|
|-3--------------|---------3------|---------3------|----------------|
|---------3------|-1--------------|-1--------------|-1---3----------|
  |   |   |   |    |   |   |   |    |   |   |   |    |   |   |   |

  G                C           G    C       F            F   G
|-------0-1------|-0-----1-3------|-0-1-3---5---8--|-7---5---3------|
|-3-----------3--|-------------3--|-----------6----|-8---6---0------|
|-----0----------|-----0----------|-----0---5---5--|-7---5----------|
|-------------0--|----------------|----------------|-----------3-2-0|
|----------------|-3-------3------|-3--------------|----------------|
|-3-------3------|-------------3--|----------------|---------3------|
  |   |   |   |    |   |   |   |    |   |   |   |    |   |   |   |

  F       C        F           C    G       C
|-3-----1-0------|---------0------|-5-5-5-5-3-----1|-0--------------|
|-------------3--|-1---3-------1--|-6-6-6-6-1------|----3----1------|
|-----0-------0--|----------------|-5-----------0--|----------------|
|----------------|-----3-------2--|----------------|----0-----------|
|-3--------------|---------3------|---------3------|---------3------|
|---------3------|-1--------------|----------------|-3--------------|
  |   |   |   |    |   |   |   |    |   |   |   |    |   |   |   |


Selamat Hari Raya Christmas
--
            
Hard to play? Try these video lessons and learn fast. | Correct




comments powered by Disqus
↑ Back to top | Tablatures and chords are parodies/interpretations of the original songs. You may use it for private study, scholarship, research or language learning purposes only