» » »

Carol Of Bells Tabs (ver.7)

Artists:  A B C D E F G H I J K L M N O P Q R S T U V W X Y Z # 

Carol Of Bells Tabs (ver.7)

Misc Christmas
Rating:
0/5 (0 votes)

Hard to play? Try these video lessons and learn fast.
                (5)
-------------------------------------------------------------------------------
                             CAROL OF THE BELLS
-------------------------------------------------------------------------------



Tuning: Standard

e|---------------------------------------------------------|
B|--12--11-12-9---12--11-12-9---12--11-12-9---12--11-12-9--|
G|---------------------------------------------------------|
D|---------------------------------------------------------|
A|---------------------------------------------------------|
E|---------------------------------------------------------|


e|---------------------------------------------------------|
B|--12--11-12-9---12--11-12-9---12--11-12-9---12--11-12-9--|
G|--13------------11-------------x-------------x-----------|<<==harmony
D|------------------------------14------------13-----------|<<==harmony
A|---------------------------------------------------------|
E|---------------------------------------------------------|


e|--11---9-11-7---11---9-11-7---11---9-11-7---11---9-11-7--|<<==harmony
B|--12--11-12-9---12--11-12-9---12--11-12-9---12--11-12-9--|
G|---------------------------------------------------------|
D|---------------------------------------------------------|
A|---------------------------------------------------------|
E|---------------------------------------------------------|


e|---16--16-16-14---------------------------------------------------|
B|--16------------17--16--16-16-14-----14--14-14-16-14--------------|
G|-13-----------------16-----------16--13---------------16----------|
D|------------------------------------------------------18--18--18--|
A|------------------------------------------------------------------|
E|------------------------------------------------------------------|


e|----------------------------------|x2
B|--------------------14-16-14------|
G|-----------13-15-16-----------16--|
D|--13-15-17------------------------|
A|----------------------------------|
E|----------------------------------|

i think metallica did this

===============================================================================
            
Hard to play? Try these video lessons and learn fast. | Correct




comments powered by Disqus
↑ Back to top | Tablatures and chords are parodies/interpretations of the original songs. You may use it for private study, scholarship, research or language learning purposes only