» » »

Misc Christmas, Carol Of Bells Tabs (ver.6)

Artists:  A B C D E F G H I J K L M N O P Q R S T U V W X Y Z # 

Carol Of Bells Tabs (ver.6)

Misc Christmas Tabs
 Rating:
4/5 (4 votes)
Carol Of Bells lessons Tabs too difficult? Try these video lessons and learn fast
1
                (4)
i was bored one day so i made this tab hope u enjoy it.


this is played by  guitar 1
E------------------------------------|
B------------------------------------|
G------------------------------------|
D-5-4-5-2--5-4-5-2--5-4-5-2--5-4-5-2-|
A------------------------------------|
E------------------------------------|


E------------------------------------|
B------------------------------------|
G-4-2-4-0--4-2-4-0--4-2-4-0--4-2-4-0-|
D------------------------------------|
A------------------------------------|
E------------------------------------|


E------------------------------------|
B-5-55-3-----------------------------|
G---------5-4-44-2-0-2-22-4-2-0------|
D--------------------------------2-2-|
A------------------------------------|
E------------------------------------|

E-----------------------------------|
B-----------------------------------|
G-----------0-2-4-2-0---------------|x2
D-----1-2-4-------------------------|
A-2-4-------------------------------|
E-----------------------------------|
you can play this 'til u get bored.


this is played by another guitar though the whole thing.
E-----------------------------------|
B-----------------------------------|
G-----------------------------------|x's as many times as you want.
D-9-------7-------5-------4---------|
A-7-------5-------3-------2---------|
E-----------------------------------|
            
Submit corrections

comments powered by Disqus
↑ Back to top | Misc Christmas Tabs for Carol Of Bells. Lyrics for acoustic guitar and electric guitar. 1 Tablatures and chords are parodies/interpretations of the original songs. You may use it for private study, scholarship, research or language learning purposes only