» » »

Carol Of Bells Bass tabs (ver.1)

Artists:  A B C D E F G H I J K L M N O P Q R S T U V W X Y Z # 

Carol Of Bells Bass tabs (ver.1)

Misc Christmas
Rating:
3/5 (3 votes)

Hard to play? Try these video lessons and learn fast.
                G|-15--14-15-12--15--14-15-12--|
D|-----------------------------|x14
A|-----------------------------|x14
E|-----------------------------|

|-19--18-19-16--19--18-19-16--|
|-----------------------------|x6
|-----------------------------|x6
|-----------------------------|

|-15--14-15-12--15--14-15-12--|
|-----------------------------|x6
|-----------------------------|x6
|-----------------------------|

|-------------------------------------------------------------|
|-19--19-19-17-15---------------------------------------------|x1
|-----------------19--19-19-17-15-17--17-17-19-15-12--12--12--|x1
|-------------------------------------------------------------|

|----------2h3-5h7p5-3-|
|-----4h5--------------|x2
|-5h7------------------|x2
|----------------------|

|-15--14-15-12--15--14-15-12--|
|-----------------------------|x6
|-----------------------------|x6
|-----------------------------|
(on the last one get slower and make a big ending)

Well hope ya like it and have a happy holiday!
            
Hard to play? Try these video lessons and learn fast. | Correct




comments powered by Disqus
↑ Back to top | Tablatures and chords are parodies/interpretations of the original songs. You may use it for private study, scholarship, research or language learning purposes only