» » »

Misc Christmas, Bring A Torch Tabs (ver.1)

Artists:  A B C D E F G H I J K L M N O P Q R S T U V W X Y Z # 

Bring A Torch Tabs (ver.1)

Misc Christmas Tabs
 Rating:
4/5 (4 votes)
Bring A Torch lessons Tabs too difficult? Try these video lessons and learn fast
                #------------------------------------------------------------------------------##
          id AA54907; Wed, 1 Dec 1993 13:39:04 -0700
X-Incognito-Sn: 204
X-Incognito-Format: VERSION=1.50c ENCRYPTED=NO

        file attached
BRING A TORCH JEANETTE ISABELLA


     D                               Em              A7 w/f#

E|---------5------|----------------|--0----2----3---|----2------0----|
B|------------3---|-----3---2---3--|--0-------------|----2-----------|
G|----------------|----------------|--0-------------|----0-----------|
D|----------------|----------------|--2-------------|----------------|
A|---------0------|----------------|--2-------------|----0-----------|
E|---------0------|----------------|--2-------------|----------------|

       D                             A7(f#)            D       (A7)
      
E|-----5----------|----------------|--0-----2---0---|----------------|
B|-----3----3-----|---3---2---3----|--2-------------|---3------------|
G|-----2----------|----------------|--0-------------|---2------------|
D|-----0----------|----------------|--2-------------|---0------------|
A|-----0----------|----------------|--0-------------|---0------------|
E|-----0----------|----------------|----------------|---0------------|

       D                                              A sus4

E|-----5-----5----|---5---3---2----|----2---0-------|----------------|
B|-----3----------|----------------|-------------3--|--3-------2-----|
G|-----2----------|----------------|----------------|--0-------------|
D|-----0----------|----------------|----------------|--2-------------|
A|----------------|----------------|----------------|--0-------------|
E|-----0----------|----------------|----------------|----------------|

       G              D               G

E|---0-----2---3--|----------------|---3------3-----|----2-----0-----|
B|---0------------|----------------|---3------------|----2-----------|
G|---0------------|----2------2----|---0------------|----0-----------|
D|---5------------|----0-----------|---0------------|----2-----------|
A|---5------------|----0-----------|---0------------|----0-----------|
E|----------------|----0-----------|---2------------|----------------|

     D        A7     D               A7                A7(f#)

E|--------|---0---|---2---3---2----|--0------5------|---2-------0----|
B|---3----|---2---|---3------------|--2-------------|---2------------|
G|---2----|---0---|---2------------|--0-------------|---0------------|
D|---0----|---2---|---0------------|--2-------------|---2------------|
A|---0----|---0---|----------------|----------------|---0------------|
E|---0----|-------|---0------------|----------------|----------------| 

   D (Bm)   A7                                        D

E|--------|--0----|----2---3---2---|--0--------5----|----------------|
B|---3----|--2----|----3-----------|--2-------------|---3------------|
G|---4----|--0----|----2-----------|--0-------------|----------------|
D|---4----|--2----|----0-----------|--2-------------|---0------------|
A|---2----|-------|----------------|----------------|----------------|
E|--------|-------|----0-----------|----------------|---0------------| 



Bring a torch, Jeanetta Isabella

Bring a torch, to the cradle, run

It is Jesus, good folk of the village

Christ is born and Mary's calling

Ah! Ah! beautiful is the Mother

Ah! Ah! beautiful is her Son!

It is wrong when the Child is sleeping,
It is wrong to talk to so loud;
Silence, all, as you gather 'round,
Lest your noise should waken Jesus;
Hush! Hush! see how fast He slumbers;
Hush! Hush! see how fast he sleeps!

Softly to the little stable,
Softly for a moment come;
Look and see how charming is Jesus
How He is white, His cheeks are rosy!
Hush! Hush! see how the Child is sleeping;
Hush! Hush! see how He smiles in dreams.
            
Submit corrections

comments powered by Disqus
↑ Back to top | Misc Christmas Tabs for Bring A Torch. Lyrics for acoustic guitar and electric guitar. Tablatures and chords are parodies/interpretations of the original songs. You may use it for private study, scholarship, research or language learning purposes only