» » »

Blue Christmas Chords (ver.2)

Artists:  A B C D E F G H I J K L M N O P Q R S T U V W X Y Z # 

Blue Christmas Chords (ver.2)

Misc Christmas
Rating:
4/5 (17 votes)

Hard to play? Try these video lessons and learn fast.
                ----------------------------------------------------------------------------
                               Blue Christmas
----------------------------------------------------------------------------


Tuning: Standard



Intro:
B7

         E              B7
I have a blue Christmas without you
           F#m       B7        E
I'll be so blue just thinking about you
    Bm         C#7       F#m
Decorations of red, on a green Christmas tree
F#7                        B7    (Eb  E    F    F#) <- (Bass notes)
won't be the same dear, if you're not here with me.

               E                      B7
And when those blue snow flakes start falling,
                  F#m  B7             E
that's when those blue memories start calling,
          Bm    C#7                F#m          Gdim
you'll be doing alright, with your Christmas of white,
    B7                    E      
but I'll have a blue blue Christmas.


          Bm    C#7                F#m          Gdim
you'll be doing alright, with your Christmas of white,
    B7                    E      
but I'll have a blue blue Christmas.





Chords

     E       B7     F#m      F#      Bm     C#7    Gdim
e|---0---|---2---|---2---|---2---|---2---|---4---|---6---|
B|---0---|---0---|---2---|---2---|---3---|---6---|---5---|
G|---1---|---2---|---2---|---3---|---4---|---4---|---6---|
D|---2---|---1---|---4---|---2---|---4---|---6---|---5---|
A|---2---|---2---|---4---|---4---|---2---|---4---|-------|
E|---0---|-------|---2---|---2---|-------|-------|-------|



| /  slide up
| \  slide down
| B  hammer-on
| p  pull-off
| ~  vibrato
| +  harmonic
| x  Mute note
===========================================================================
            
Hard to play? Try these video lessons and learn fast. | Correct




comments powered by Disqus
↑ Back to top | Tablatures and chords are parodies/interpretations of the original songs. You may use it for private study, scholarship, research or language learning purposes only