» » »

Misc Christmas, Blue Christmas Tabs (ver.1)

Artists:  A B C D E F G H I J K L M N O P Q R S T U V W X Y Z # 

Blue Christmas Tabs (ver.1)

Misc Christmas Tabs
Rating:
3/5 (5 votes)
Blue Christmas lessons Tabs too difficult? Try these video lessons and learn fast
                

e|-----------------------------|
B|-----------------------------|
G|-----0-2-2-0-------0---------|
D|---3----------3-2------------|
A|-3---------------------------|
E|-----------------------------|

I'll have a blue christ-mas without you...

e|-------------------------|
B|-------------------------|
G|-----0--3--3--2---0----2-|
D|---2-----------------3---|
a|-3-----------------------|
E|-------------------------|

I'll be so blue think-ing  a-bout you.... 


e|-----------------------------------------------|
B|-----1-----1-----------------------------------|
G|-2-3---3-2---3-2-0-0-2-3-2-0---2-----------0---|
D|-----------------------------3---3-2-2-3-4-----|
A|-----------------------------------------------|
E|-----------------------------------------------|


Dec-o-ra-tions of red on a green christ- mas tree...
won't mean a thing if your not here with me.


e|------------------------|
B|------------------------|
G|-----0-2-2-0-----0------|
D|---3---------3-2--------|
A|-3----------------------|
E|------------------------|

I'll have a blue chrst-mas that's cer-tain



e|-------------------------|
B|-------------------------|
G|-----0-3-3-2-0---2-------|
D|---2-----------3---------|
A|-3-----------------------|
E|-------------------------|

and when that blue heat-ache starts hurt-in

e|----------------------------|
B|-----1-----1------------3---|
G|-2-3---3-2---3-2-0-2-3------|
D|----------------------------|
A|----------------------------|
E|----------------------------|

You'll be do-in all right, with your christ-mas of white,

e|---------------------------|
B|---------------------------|
G|----------0-2-0------------|
D|--0---2-3-------3----------|
A|----3----------------------|
E|---------------------------|

But I'll have a blue, blue christ-mas



enjoy, chris hickok.
            

comments powered by Disqus
↑ Back to top | Misc Christmas Tabs for Blue Christmas. Lyrics for acoustic guitar and electric guitar. Tablatures and chords are parodies/interpretations of the original songs. You may use it for private study, scholarship, research or language learning purposes only