» » »

Away In A Manger Tabs (ver.4)

Artists:  A B C D E F G H I J K L M N O P Q R S T U V W X Y Z # 

Away In A Manger Tabs (ver.4)

Misc Christmas
Rating:
0/5 (0 votes)

Hard to play? Try these video lessons and learn fast.
                (3)

e------------------------------------------------------------------------|
B------------------------------------------------------------------------|
G----------------2h3-5-5-7-3-----3-3-5-----------------------------------|
D----3-3-5h7-3-3-------------5h7-------7-7-3h7-5-0-3-2-------------------|
A--3---------------------------------------------------------------------|
E------------------------------------------------------------------------|

e------------------------------------------------------------------------|
B------------------------------------------------------------------------|
G----------------2h3-5-5-7-3-----3-3-5-----------------------------------|
D----3-3-5h7-3-3-------------5h7-------7-7-3h7-5-0-2-3-------------------|
A--3---------------------------------------------------------------------|
E------------------------------------------------------------------------|
            
Hard to play? Try these video lessons and learn fast. | Correct




comments powered by Disqus
↑ Back to top | Tablatures and chords are parodies/interpretations of the original songs. You may use it for private study, scholarship, research or language learning purposes only