» » »

Away In A Manger Bass tabs (ver.1)

Artists:  A B C D E F G H I J K L M N O P Q R S T U V W X Y Z # 

Away In A Manger Bass tabs (ver.1)

Misc Christmas
Rating:
0/5 (0 votes)

Hard to play? Try these video lessons and learn fast.
                   Away in a manger, no crib for a bed
G -9-9--7-----------------------------|
D --------10-10--9---7--7-------------|
A ---------------------------10--8-7--|
E ------------------------------------|

    The little lord Jesus, lay down His sweet head
G  -----------------------------------------------|
D  -------------------9-----------------7-----10--|
A  -7--7-8-----7----7------10--8----7-------------|
E  -----------------------------------------------|

   The stars in the sky, looked down where He lay
G  9---9-----7-----------------------------------|
D  -------------10-10-9--7------7----------------|
A  ----------------------------------10----8--7--|
E  ----------------------------------------------|

   The little Lord Jesus, asleep on the hay
G  ----7------------------------------------|
D  7-----10---9----10-9---7-9-----------7---|
A  ------------------------------8--10------|
E  -----------------------------------------|

 Just repeat tab for the next two verses
            
Hard to play? Try these video lessons and learn fast. | Correct




comments powered by Disqus
↑ Back to top | Tablatures and chords are parodies/interpretations of the original songs. You may use it for private study, scholarship, research or language learning purposes only