» » »

Angels We Have Heard On High Bass tabs (ver.1)

Artists:  A B C D E F G H I J K L M N O P Q R S T U V W X Y Z # 

Angels We Have Heard On High Bass tabs (ver.1)

Misc Christmas
Rating:
0/5 (0 votes)

Hard to play? Try these video lessons and learn fast.
                G||*-----------------0----|--0------------------|----------------------|
D||*--2----2----2---------|---------3--2--------|--2----0----2---------|
A||-----------------------|---------------------|----------------------|
E||-----------------------|---------------------|----------------------|


                                                                         

--0------------------*||*-----------------0--2--|--0--------------------|
---------2--0--------*||*-----------------------|--------------3--2--3--|
----------------3-----||------------------------|-----------------------|
----------------------||------------------------|-----------------------|


                                                                     

--0--------------------|---------------------|----------------------|
-----------3--2--0--2--|--3--2---0-----0-----|-------0----2----3----|
-----------------------|------------3--------|--3-------------------|
-----------------------|-----------------3-3-|----------------------|


Ending 1                Ending 2                                     
--------------------*||--------------------|-------------------||
--2--------0--------*||--2--------0--------|-------------------||
---------------------||--------------------|--3----------------||
---------------------||--------------------|-------------------||
            
Hard to play? Try these video lessons and learn fast. | Correct




comments powered by Disqus
↑ Back to top | Tablatures and chords are parodies/interpretations of the original songs. You may use it for private study, scholarship, research or language learning purposes only