» » »

Misc Christmas, A Holly Jolly Christmas Tabs (ver.1)

Artists:  A B C D E F G H I J K L M N O P Q R S T U V W X Y Z # 

A Holly Jolly Christmas Tabs (ver.1)

Misc Christmas Tabs
 Rating:
3/5 (6 votes)
A Holly Jolly Christmas lessons Tabs too difficult? Try these video lessons and learn fast
1
                ----------------------------------------------------------------------------
              A Holly Jolly Christmas – (Christmas)
----------------------------------------------------------------------------



Tuning: Standard


e|--1b-----------------------|-----------------------|
B|------4--2--2--1--1--------|-----------------------|
G|---------------------3-----|--------3--3--1--1-----|
D|------------------------3--|--3--3--------------1--|
A|---------------------------|-----------------------|
E|---------------------------|-----------------------|


e|--------------------------|-----------------|--1b-----------------------|
B|--1--1--1-----------------|-----------------|------4--2--2--1--1--------|
G|-----------3--1--1--1-----|-----------------|---------------------3-----|
D|-----------------------4--|--1--1--1--------|------------------------3--|
A|--------------------------|-----------4--3--|---------------------------|
E|--------------------------|-----------------|---------------------------|


e|--------------------|-----------------------------------------|
B|--------------------|--1--1--1--------------------------------|
G|--------------------|-----------3--1--1--1-----1--1-----------|
D|--------3--3--1--1--|-----------------------4--------4--1-----|
A|--3--3--------------|--------------------------------------4--|
E|--------------------|-----------------------------------------|


e|---------------------------------|----------------------------------|
B|--2-----1--1---------------------|----------------------------------|
G|-----3--------1—1--3--------3—1--|--0-----------4--2-------1-----2--|
D|----------------------3--3-------|-----2--4--4--------2—4-----2-----|
A|---------------------------------|----------------------------------|
E|---------------------------------|----------------------------------|
   Ho Ho the…


e|--1b-----------------------|-----------------------|
B|------4--2--2--1--1--------|-----------------------|
G|---------------------3-----|--------3--3--1--1-----|
D|------------------------3--|--3--3--------------1--|
A|---------------------------|-----------------------|
E|---------------------------|-----------------------|


e|--------------------------------------|
B|--1--1--1--------------1--4-----1--2--|
G|-----------3--1--1--1--------3--------|
D|--------------------------------------|
A|--------------------------------------|
E|--------------------------------------|
            
Submit corrections

comments powered by Disqus
↑ Back to top | Misc Christmas Tabs for A Holly Jolly Christmas. Lyrics for acoustic guitar and electric guitar. 1 Tablatures and chords are parodies/interpretations of the original songs. You may use it for private study, scholarship, research or language learning purposes only