» » »

Misc Christmas, 12 Days Of Christmas Tabs (ver.1)

Artists:  A B C D E F G H I J K L M N O P Q R S T U V W X Y Z # 

12 Days Of Christmas Tabs (ver.1)

Misc Christmas Tabs
Rating:
0/5 (0 votes)
12 Days Of Christmas lessons Tabs too difficult? Try these video lessons and learn fast
                Twelve Days Of Christmas! 
(written by santa as every other christmas song is)

* if its in brackets then its optional to play 
   but i suggest playing it before
   the "partridge in a pear tree" to walkup to it 


Intro to each verse         " a partridge in       "two turtle doves" 
                               a pear tree"            (etc)
        \/                          \/                   \/
e|--------------------------|-----------------|---------------------|
B|--------------------------|-----------------|---------------------|
G|--------------------------|-----6-----------|---------------------|
D|------------------6-7---6-|-7-9---7-6-------|-9---6-7----(6-7)----|
A|------7-7-7-6-7-9-----9---|-----------7-9-7-|---9-----9-----------|
E|-7-7-7--------------------|-----------------|---------------------|


  Five gold rings, 
  four calling birds 
  three french hens 
  two turtle doves and a       partridge in a pear tree
         \/
e|----------------------------------------------------------------------|
B|----------------------------------------------------------------------|
G|---6-------------------------------------6----------------------------|
D|-9---7-9-9-7-6-----7---------------6-7-9---7-6------------------------|
A|---------------9-7-----7-9-7-6-----------------7-9-77777777 (E chord)-|
E|---------------------9---------9-7------------------------------------|

This is the song as i hear it, its in the c major scale
it is nice to finish on an E chord erm...
the part i have labelled "two turtle doves" is used for each 
line of the song other than "partridge in a pear tree, and the intro 
to each verse and five gold rings"..enjoy :)
            
Submit corrections

comments powered by Disqus
↑ Back to top | Misc Christmas Tabs for 12 Days Of Christmas. Lyrics for acoustic guitar and electric guitar. Tablatures and chords are parodies/interpretations of the original songs. You may use it for private study, scholarship, research or language learning purposes only