» » »

Misc Children, Three Blind Mice Tabs (ver.1)

Artists:  A B C D E F G H I J K L M N O P Q R S T U V W X Y Z # 

Three Blind Mice Tabs (ver.1)

Misc Children Tabs
Rating:
4/5 (5 votes)
Hard to play? Try these video lessons and learn fast.
                ----------------------------------------------------------------------------
                             Three Blind Mice- Unknown
----------------------------------------------------------------------------

I looked at Misc Children and saw no "three blind mice" and thought to myself Its my 
to write the tab(with chords)

Its quite a deep and meaningful story actually, you always think of the mice as a bit 
but in fact they are blind they have just been attacked by the farmers wife and are 
to further ridicule...

R.I.P Three blind mice


Tuning:


      C
e|----0------------------------0---------------------------------------------|
B|-------------3-------1----------------3---------1--------------------------|
G|---------------------------------------------------------------------------|
D|---------------------------------------------------------------------------|
A|---------------------------------------------------------------------------|
E|---------------------------------------------------------------------------|
  Three-----Blind----Mice,---three----blind----------------------------------|mice


    G                 C     G                  C
e|--3-----1-----1-----0-----3-----1------1-----0-----------------------------|
B|---------------------------------------------------------------------------|
G|---------------------------------------------------------------------------|
D|---------------------------------------------------------------------------|
A|---------------------------------------------------------------------------|
E|---------------------------------------------------------------------------|
  See----how---they---run, See----how---they---------------------------------|run


  C
e|--3----8---8----7--5----7----8-----3---3-----------------------------------|
B|---------------------------------------------------------------------------|
G|---------------------------------------------------------------------------|
D|---------------------------------------------------------------------------|
A|---------------------------------------------------------------------------|
E|---------------------------------------------------------------------------|
  They--all--ran--af-ter--the--farm-ers--------------------------------------|wife

  C
e|-3---8--8-----8----7-----5--7---8---3----3-------------------------------|
B|-------------------------------------------------------------------------|
G|-------------------------------------------------------------------------|
D|-------------------------------------------------------------------------|
A|-------------------------------------------------------------------------|
E|-------------------------------------------------------------------------|
  Who cut off their tales with a car-ving knife

  C                                               G          C
e|-3--8-8----8---7---5--7---8----3---3----3---1----0-----------------------|
B|-------------------------------------------------------3----1------------|
G|-------------------------------------------------------------------------|
D|-------------------------------------------------------------------------|
A|-------------------------------------------------------------------------|
E|-------------------------------------------------------------------------|
  Did ev-er you see such a thing in your life as three blind mice?


#######################################
#THANKYOU PLEASE COMMENT AND RATE WELL#
#######################################
            

comments powered by Disqus
↑ Back to top | Misc Children Tabs for Three Blind Mice. Lyrics for acoustic guitar and electric guitar. Tablatures and chords are parodies/interpretations of the original songs. You may use it for private study, scholarship, research or language learning purposes only