» » »

Row Row Row Your Boat Tabs (ver.2)

Artists:  A B C D E F G H I J K L M N O P Q R S T U V W X Y Z # 

Row Row Row Your Boat Tabs (ver.2)

Misc Children
Rating:
5/5 (11 votes)

Hard to play? Try these video lessons and learn fast.
                6/8

|-----------|------------|----------------|-----|--------------------------|
|-----------|------------|----------------|-----|--4--4--4--4--------------|
|-----------|---------0--|--0------0---1--|--3--|--------------3--3--3--3--|
|--1-----1--|--1---3-----|------3---------|-----|--------------------------|
|-----------|------------|----------------|-----|--------------------------|
|-----------|------------|----------------|-----|--------------------------|

|--------------------------|----------------|-----|
|--------------------------|----------------|-----|
|--0--0--0--0--------------|--3---1--0------|-----|
|--------------1--1--1--1--|-------------3--|-----|
|--------------------------|----------------|--1--|
|--------------------------|----------------|-----|

Row, row, row your boat,
gently down the stream.
Merrily, merrily, merrily, merrily
life is but a dream.

*Haven't tried it personally, but I think it would be cool (being this is a "round" 
to get someone else to start playing this when you start on the "merrily" part. Try it out 
leave me a message letting me know who it works out! :-D
            
Hard to play? Try these video lessons and learn fast. | Correct




comments powered by Disqus
↑ Back to top | Tablatures and chords are parodies/interpretations of the original songs. You may use it for private study, scholarship, research or language learning purposes only