» » »

Pop Goes The Weasel Tabs (ver.2)

Artists:  A B C D E F G H I J K L M N O P Q R S T U V W X Y Z # 

Pop Goes The Weasel Tabs (ver.2)

Misc Children
Rating:
5/5 (1 vote)

Hard to play? Try these video lessons and learn fast.
                |-------------0-3-0----------------0----------------0-3-0-------|
|--1--1-3---3-------1----1--1-3--3---1----1--1-3--3-------1-----|
|0---------------------0----------------0-----------------------|
|---------------------------------------------------------------|
|---------------------------------------------------------------|
|---------------------------------------------------------------|

|5----1-0------------|
|---3-----1----------|
|--------------------|
|--------------------|
|--------------------|
|--------------------|

PLZ RATE
            
Hard to play? Try these video lessons and learn fast. | Correct




comments powered by Disqus
↑ Back to top | Tablatures and chords are parodies/interpretations of the original songs. You may use it for private study, scholarship, research or language learning purposes only