» » »

Old Macdonald Tabs (ver.2)

Artists:  A B C D E F G H I J K L M N O P Q R S T U V W X Y Z # 

Old Macdonald Tabs (ver.2)

Misc Children
Rating:
5/5 (1 vote)

Hard to play? Try these video lessons and learn fast.
                
Hello everyone, just saw that this song can be a lot simpler than some of
the other tabs for it I've seen are - this was the first song I learned on
guitar - a few years ago now XD 

Obviously you can do this song in loads of keys so if you want, you can
just use another tab, or put a capo on, or change the string you start
on... :L
Anyway, if you play the tune, you'll know where all the lyrics go.

Basically, it's a simple song, great for beginners to try, and you can
change it a lot to suit yourself :D

Hope it helps :)


Here are the lyrics, and just because it's the one I've heard most, I'm
going to use 'cow' and 'moo' as the animal and animal noise, but obviously
you can change that :L

Old MacDonald had a farm, ee-aye-ee-aye-oh.
And on that farm he had a cow, ee-aye-ee-aye-oh.
With a "moo-moo" here, and a "moo-moo" there,
Here a "moo", there a "moo", everywhere a "moo-moo".
Old MacDonald had a farm, ee-aye-ee-aye-oh.



e|--0-0-0----------4-4-2-2-0-------0-0-0----------4-4-2-2-0-|
B|--------0-2-2-0----------------0-------0-2-2-0------------|
G|----------------------------------------------------------|
D|----------------------------------------------------------|
A|----------------------------------------------------------|
E|----------------------------------------------------------|


e|------0-0-0------0-0-0---0-0-0--0-0-0--0-0-0-0-0-0--------|
B|--0-0--------0-0------------------------------------------|
G|----------------------------------------------------------|
D|----------------------------------------------------------|
A|----------------------------------------------------------|
E|----------------------------------------------------------|


e|--0-0-0----------4-4-2-2-0--------------------------------|
B|--------0-2-2-0-------------------------------------------|
G|----------------------------------------------------------|
D|----------------------------------------------------------|
A|----------------------------------------------------------|
E|----------------------------------------------------------|


[Alternative Ending]:
e|--0-0-0----------4-4-2-2-0---4-4-2-2--4-4-2-2--4-4-2-2-0--|
B|--------0-2-2-0-------------------------------------------|
G|----------------------------------------------------------|
D|----------------------------------------------------------|
A|----------------------------------------------------------|
E|----------------------------------------------------------|

or

e|--0-0-0----------4-4-2-2--4-4-2-2--4-4-2-2-0--------------|
B|--------0-2-2-0-------------------------------------------|
G|----------------------------------------------------------|
D|----------------------------------------------------------|
A|----------------------------------------------------------|
E|----------------------------------------------------------|
            
Hard to play? Try these video lessons and learn fast. | Correct




comments powered by Disqus
↑ Back to top | Tablatures and chords are parodies/interpretations of the original songs. You may use it for private study, scholarship, research or language learning purposes only