» » »

Misc Children, Its A Small World Tabs (ver.2)

Artists:  A B C D E F G H I J K L M N O P Q R S T U V W X Y Z # 

Its A Small World Tabs (ver.2)

Misc Children Tabs
 Rating:
4/5 (4 votes)
Its A Small World lessons Tabs too difficult? Try these video lessons and learn fast
                It's A Small World
Composed by Robert B. Sherman

Verse

e|----------------------------------------------------------------------------|
B|----------0-----------------------------------------------------------------|
G|-------------0--2--0--0-----------------2-----0-----------------------0--2--|
D|-------0-----------------4--4--------------4-----4--2--0--0--------0--------|
A|-2--3--------------------------0--2--3-----------------------2--3-----------|
E|----------------------------------------------------------------------------|

e|----------------------------------------------------------------------------|
B|-0--------------0--1--0--------1--0-----------------------------------------|
G|----2--0-----2------------2-----------2--0----------------------------------|
D|----------2------------------0----------------------------------------------|
A|----------------------------------------------------------------------------|
E|----------------------------------------------------------------------------|

Chorus

e|----------------------------------------------------------------------------|
B|-------0--------------------1-----0--0--0--0--0--0--3--0--1--1--1--0--------|
G|-0--0-----0--2--2--2--2--2-----2--------------------------------------2-----|
D|-------------------------------------------------------------------------0--|
A|----------------------------------------------------------------------------|
E|----------------------------------------------------------------------------|

e|----------------------------------------------------------------------------|
B|----------------------------------------------------------------------------|
G|----0-----------------------------------------------------------------------|
D|-4--------------------------------------------------------------------------|
A|----------------------------------------------------------------------------|
E|----------------------------------------------------------------------------|

Lyrics

VERSE
It's a world of laughter, a world or tears
It's a world of hopes and a world of fears
There's so much that we share
That it's time we're aware
It's a small world after all

CHORUS
It's a small world after all
It's a small world after all
It's a small world after all
It's a small, small world

VERSE
There is just one moon and one golden sun
And a smile means friendship to everyone
Though the mountains divide
And the oceans are wide
It's a small, small world

End with CHORUS
            
Submit corrections

comments powered by Disqus
↑ Back to top | Misc Children Tabs for Its A Small World. Lyrics for acoustic guitar and electric guitar. Tablatures and chords are parodies/interpretations of the original songs. You may use it for private study, scholarship, research or language learning purposes only