» » »

Misc Children, In The Night Garden Tabs (ver.4)

Artists:  A B C D E F G H I J K L M N O P Q R S T U V W X Y Z # 

In The Night Garden Tabs (ver.4)

Misc Children Tabs
 Rating:
4.3/5 (6 votes)
In The Night Garden lessons Tabs too difficult? Try these video lessons and learn fast
                -------------------------------------------------------------------------------
                             In The Night Garden Theme Song 
-------------------------------------------------------------------------------

| /  slide up
| \  slide down
| h  hammer-on
| p  pull-off
| ~  vibrato

Tuning: standard tuning

e|----------------------------------------------------|
B|----------------------------------------------------|
G|-9----12-10-9-10-9~~-7--7-9-10-10\12/10-9-10p9-7----|
D|---10-----------------------------------------------|
A|----------------------------------------------------|
E|----------------------------------------------------|


e|----------------------------------------------------|
B|-------------------------------------9h10h12\13-13--|
G|-9----12-10-9-10-9~~-7--7-9-10-10\12----------------|
D|---10-----------------------------------------------|
A|----------------------------------------------------|
E|----------------------------------------------------|

Play this through the whole song. 

I was watching this with my son and thought that it would 
be good to play this song for my son when the show is not 
on yet. It is also funny when I tease him, he stares at 
the tv waiting for the show to come on. Well Laters Dudes 
and Dudettes.


===============================================================================
            
Submit corrections

comments powered by Disqus
↑ Back to top | Misc Children Tabs for In The Night Garden. Lyrics for acoustic guitar and electric guitar. Tablatures and chords are parodies/interpretations of the original songs. You may use it for private study, scholarship, research or language learning purposes only