» » »

Misc Children, In The Night Garden Tabs (ver.3)

Artists:  A B C D E F G H I J K L M N O P Q R S T U V W X Y Z # 

In The Night Garden Tabs (ver.3)

Misc Children Tabs
 Rating:
4/5 (4 votes)
In The Night Garden lessons Tabs too difficult? Try these video lessons and learn fast
                My Baby loves the Night Garden, so I after watching it 100 times, I decided to tab it out.
It's quite a simple melody based on a C major Scale
you can also bring in a small intro to the song on the G string.
It goes like this.... 

G:--0--2--4--|

E:----------------------|---------5------------|
B:-5-----8-6-5-6-5------|---5-6-8---8-5-6-5----|
G:---5---------------7--|-7-----------------7--|
D:----------------------|----------------------|
A:----------------------|----------------------|
E:----------------------|----------------------|

E:----------------------|---------5---5-7-8----|
B:-5-----8-6-5-6-5------|---5-6-8---8----------|
G:---5---------------7--|-7--------------------|
D:----------------------|----------------------|
A:----------------------|----------------------|
E:----------------------|----------------------|

This is certainly in the right key and the simplest way to play it.
            
Submit corrections

comments powered by Disqus
↑ Back to top | Misc Children Tabs for In The Night Garden. Lyrics for acoustic guitar and electric guitar. Tablatures and chords are parodies/interpretations of the original songs. You may use it for private study, scholarship, research or language learning purposes only