» » »

Fais Dodo Tabs (ver.1)

Artists:  A B C D E F G H I J K L M N O P Q R S T U V W X Y Z # 

Fais Dodo Tabs (ver.1)

Misc Children
Rating:
0/5 (0 votes)

Hard to play? Try these video lessons and learn fast.
                This is an easy instrumental version I worked out based on a French kids lullaby 
called 'Fais dodo'.  It sounds kinda nice with a capo on the 7th fret.


E|-0----------------|-----------------|----------------|-0--------------|
B|------------3-----|-1----------1----|-3----1----3----|------------1---|
G|------0--------0--|------0----------|-0--------------|------0---------|
D|---------2--------|---------2-------|-0--------------|---------2------|
A|-3----------------|-0---------------|----------------|-3--------------|
E|------------------|-----------------|-3--------------|----------------|


E|-0----------------|-----------------|------0---------|----------------|
B|------------3-----|-1----------1----|-3---------3----|-1--------------|
G|------0--------0--|------0----------|-0------------0-|------0---------|
D|---------2--------|---------2-------|-0--------------|-----------2----|
A|-3----------------|-0---------------|----------------|-3--------------|
E|------------------|-----------------|-3--------------|----------------|

E|-0----------------|-----------------|----------------|-0--------------|
B|------------3-----|-1----------1----|-3----1----3----|------------1---|
G|------0--------0--|------0----------|-0--------------|------0---------|
D|---------2--------|---------2-------|-0--------------|---------2------|
A|-3----------------|-0---------------|----------------|-3--------------|
E|------------------|-----------------|-3--------------|----------------|

E|-0----------------|-----------------|------0---------|-----------3----|
B|------------3-----|-1----------1----|-3---------3----|-1--------------|
G|------0--------0--|------0----------|-0------------0-|----------------|
D|---------2--------|---------2-------|-0--------------|----------------|
A|-3----------------|-0---------------|----------------|-3--------------|
E|------------------|-----------------|-3--------------|----------------|

E|-3----1-----0-----|------------3----|-3----1----0----|-----------3----|
B|-1----------------|-3---------------|-1--------------|-3--------------|
G|-0----------------|-------0---------|-0--------------|------0---------|
D|-2----------------|-----------------|-2--------------|----------------|
A|-0----------------|-2---------------|-0--------------|-2--------------|
E|------------------|-----------------|----------------|----------------|


E|-3-----1-----0----|---------0-------|------------0---|----------------|
B|-1----------------|-3----------3----|-1-------3------|-3--------------|
G|-0----------------|------0--------0-|------0---------|------0---------|
D|-2----------------|-----------------|----------------|-----------2----|
A|-0----------------|-2---------------|-3--------------|-2--------------|
E|------------------|-----------------|----------------|----------------|


E|-0----------------|-----------------|----------------|-0--------------|
B|------------3-----|-1----------1----|-3----1----3----|------------1---|
G|------0--------0--|------0----------|-0--------------|------0---------|
D|---------2--------|---------2-------|-0--------------|---------2------|
A|-3----------------|-0---------------|----------------|-3--------------|
E|------------------|-----------------|-3--------------|----------------|


E|-0----------------|-----------------|------0---------|----------------|
B|------------3-----|-1----------1----|-3---------3----|-1--------------|
G|------0--------0--|------0----------|-0------------0-|-0--------------|
D|---------2--------|---------2-------|-0--------------|-2--------------|
A|-3----------------|-0---------------|----------------|-3--------------|
E|------------------|-----------------|-3--------------|----------------|
            
Hard to play? Try these video lessons and learn fast. | Correct




comments powered by Disqus
↑ Back to top | Tablatures and chords are parodies/interpretations of the original songs. You may use it for private study, scholarship, research or language learning purposes only