» » »

Misc Cartoons, 6teen - Ending Tabs (ver.1)

Artists:  A B C D E F G H I J K L M N O P Q R S T U V W X Y Z # 

6teen - Ending Tabs (ver.1)

Misc Cartoons Tabs
 Rating:
4/5 (4 votes)
6teen - Ending lessons Tabs too difficult? Try these video lessons and learn fast
                (Theme)
                                Seis Dezesseis                                  


Pista 1
      Q     Q     Q     Q        Q     Q     Q     Q     
E||--------------------------|--------------------------|
B||--------12----------------|--------------------------|
G||--12----------12----14----|--14----12----10----12----|
D||--------------------------|--------------------------|
A||--------------------------|--------------------------|
E||--------------------------|--------------------------|


   Q     Q     Q     Q        Q     Q     Q     Q     
--------------------------|--------------------------|
--------------------------|--------------------------|
--12----16----16----12----|--12----16----17----16----|
--------------------------|--------------------------|
--------------------------|--------------------------|
--------------------------|--------------------------|


   Q     Q     Q     Q        Q     Q     Q     Q        Q     Q        Q     
--------------------------|--------------------------|--------------|--------|
--------------------------|--------------------------|--------------|--------|
--14----12----12----16----|--12----------------------|--------------|--------|
--------------------------|--------15----16----16----|--16----16----|--14----|
--------------------------|--------------------------|--------------|--------|
--------------------------|--------------------------|--------------|--------|


   Q        Q     Q     Q     Q        Q     Q     Q     
--------|--------------------------|--------------------|
--------|--------------------------|--------------------|
--------|--------------------------|--------12----12----|
--12----|--12----14----12----14----|--12----------------|
--------|--------------------------|--------------------|
--------|--------------------------|--------------------|


   Q     Q     Q     Q        Q        Q     Q     Q     Q     
--------------------------|--------|--------------------------|
--------------------------|--------|--------------------------|
--16----12----11----12----|--12----|--12----12----16----16----|
--------------------------|--------|--------------------------|
--------------------------|--------|--------------------------|
--------------------------|--------|--------------------------|


   Q     Q     Q                Q     Q     Q     Q        Q     Q     Q     
--------------------|-------|--------------------------|--------------------|
--------------------|-------|--------------------------|--------------------|
--14----14----12----|-------|--12----12----17----16----|--14----12----12----|
--------------------|-------|--------------------------|--------------------|
--------------------|-------|--------------------------|--------------------|
--------------------|-------|--------------------------|--------------------|


   Q     Q     Q     Q        Q     Q      
--------------------------|--------------||
--------------------------|--------------||
--16----17----19----17----|--16----12----||
--------------------------|--------------||
--------------------------|--------------||
--------------------------|--------------||
            
Submit corrections

comments powered by Disqus
↑ Back to top | Misc Cartoons Tabs for 6teen - Ending. Lyrics for acoustic guitar and electric guitar. Tablatures and chords are parodies/interpretations of the original songs. You may use it for private study, scholarship, research or language learning purposes only