» » »

Whatever Song Bass tabs (ver.1)

Artists:  A B C D E F G H I J K L M N O P Q R S T U V W X Y Z # 

Whatever Song Bass tabs (ver.1)

Misc Artists
Rating:
0/5 (0 votes)

Hard to play? Try these video lessons and learn fast.
                "(1)
Ok, I am a guitarist and this is the first time I have picked up a bass so if you don't like the song 
go get another one. If you play this you may recognise it as a song from the Happy Gilmour movie (when 
I've made some symbols that you probably won't understand.

*	That means silence it appears just below the note. Silence right after you pick the string
\	Slide down to
/	Slide up to
|	I just put this in cuz everyone else does and it looks cooler                 that way
h	This means play the note in front and press down the note behind it without plucking it. 
:)	This means I have no other symbols in this song
@$#!%This means QUIT LOOKING AT THE SYMBOLS AND PLAY THE SONG


***JUST A NOTE:  if you don't know the string names… Learn fast!***

G------|----------|----------|-------6-4---------------|----------|
D------|----------|----------|---------*-6-4---4-6-----|----------|
A------|-0--------|-0--------|-0-----------*-7-*-------|-0--------|
E-2-2--|2--0-2-2--|2--0-2-2--|2--0-2--------------2-2--|2--0-2-2--|
    *          *          *        *                *           *
G-----------|-----------|------------|-------|-----------------|
D-----------|-----------|------------|-------|-----------------|
A--0--------|--0--------|-------0-0--|-0-3---|-------1---------|
E-2--0-2-2--|-2--0-2-2--|-2-3-4---*--|-----3-|33-3-3---3-0h2-2-|
         *           *                           *           *
                     2  3  4  1  2  3  4THESE #'S ARE THE BEATS
G-----------|--------------------------------|-----------|------------|
D-----------|--------------------------------|--2--------|-0----------|
A--0--------|-0--------------------------4-4-|4---2-22-2-|2--0--------|
E-2--0-2-2--|2--0-2-2----------------------*-|---------*-|-----0h2-2--|
      *                    *                                                             
G-----------------------|
D-----4-\2--------------|
A-0-------4-\2-0-2-/4---|   Slide here is optional
E2--0-----------------2-|

Comments questions or changes email whoever. Comments, Questions or maybe 
yes that is my) for real address.
"            
Hard to play? Try these video lessons and learn fast. | Correct




comments powered by Disqus
↑ Back to top | Tablatures and chords are parodies/interpretations of the original songs. You may use it for private study, scholarship, research or language learning purposes only