» » »

Misc Artists, We Gonna Make Love Around The Trees Tabs (ver.1)

Artists:  A B C D E F G H I J K L M N O P Q R S T U V W X Y Z # 

We Gonna Make Love Around The Trees Tabs (ver.1)

Misc Artists Tabs
Rating:
0/5 (0 votes)
We Gonna Make Love Around The Trees lessons Tabs too difficult? Try these video lessons and learn fast
                ***************************************************************************	
	We Gonna Make Love Around The Trees by Soenen Martijn (23/10/01)
							by Neil Young
	***************************************************************************


	CHORDS used in this song:

	        	EADGBE		

	F barré 	133211		
	G barré 	355433
	C       	030210

	INTRO: 

	     C                                    (f--e--d) F

	E |-------0-0-0---------0-0-0--------0-0-|----------1-1-1-1-1--1-1-1-1-|
	B |--1----1-1-1----1----1-1-1---1----1-1-|----------1-1-1-1-1--1-1-1-1-|
	G |--0----0-0-0----0----0-0-0---0----0-0-|----------2-2-2-2-2--2-2-2-2-|
	D |--0h2--2-2-2----0h2--2-2-2---0h2--2-2-|-3--2--0--3-3-3-3-3--3-3-3-3-|
	A |--3----3-3-3----3----3-3-3---3----3-3-|----------3-3-3-3-3--3-3-3-3-|
	E |--------------------------------------|----------1-1-1-1-1--1-1-1-1-|

	     F     G                              (a--b) C
	E |--1-1-1-3--3-3-3-3---3-3-3-3----------|-------0--0-0-0-0-0--|
	B |--1-1-1-3--3-3-3-3---3-3-3-3----------|-------1--1-1-1-1-1--|
	G |--2-2-2-4--4-4-4-4---4-4-4-4----------|-------0--0-0-0-0-0--|
	D |--3-3-3-5--5-5-5-5---5-5-5-5----------|-------2--2-2-2-2-2--|
	A |--3-3-3-5--5-5-5-5---5-5-5-5----------|-0--2--3--3-3-3-3-3--|
	E |--1-1-1-3--3-3-3-3---3-3-3-3----------|---------------------|

	VERSES
   
	C                 F     G                        C
	We walked hand in hand, through the green flower parks
                                	F   G                           C
	You picked one up and smiled to me, you were lonesome just like me
	C                     F     G                             C
	With my hands I could feel, we gonna make love around the trees.

	Well, we walked allong the shore, 
	it was then I knew for sure
	The sand we're walkin' in is a whore, 
	We gonna make love, that's for sure.

	INTRO

	We gonna make love around the trees,
	and hope everybody sees
	The world we're livin' is a lie
	oh it's so hard, I could die

	We gonna make love around the trees
	and we hope nobody sees
	The pain I'm singin with is a chord
	But we made love that's for sure

	***************************************************************************
	***************************************************************************
            
Submit corrections

comments powered by Disqus
↑ Back to top | Misc Artists Tabs for We Gonna Make Love Around The Trees. Lyrics for acoustic guitar and electric guitar. Tablatures and chords are parodies/interpretations of the original songs. You may use it for private study, scholarship, research or language learning purposes only