» » »

Untitled Tabs (ver.1)

Artists:  A B C D E F G H I J K L M N O P Q R S T U V W X Y Z # 

Untitled Tabs (ver.1)

Misc Artists
Rating:
0/5 (0 votes)

Hard to play? Try these video lessons and learn fast.
                (Riff)
Written By Matt Reynolds & Matt Fohr
July 2002
a cool riff we made up messing around

|--------------------------------------------|
|--------------------------------------------|
|--0--3--5/7--7--5--7--7-5--2-3-2---0--------|
|---------------------------------3----------|
|--------------------------------------------|
|--------------------------------------------|

|--------------------------------------------|
|-------------8-6-8--------------------------|
|--0--3--5/7--------7-5----2h3p2---0---------|
|------------------------3-------3-----------|
|--------------------------------------------|
|--------------------------------------------|

|--------------------------------------------|
|--/8-8-6-8---/10-10-8-10--------------------|
|--------------------------7--5-5-3-3-2---0--|
|---------------------------------------3----|
|--------------------------------------------|
|--------------------------------------------|
            
Hard to play? Try these video lessons and learn fast. | Correct




comments powered by Disqus
↑ Back to top | Tablatures and chords are parodies/interpretations of the original songs. You may use it for private study, scholarship, research or language learning purposes only