» » »

Misc Artists, Not Sure Tabs (ver.1)

Artists:  A B C D E F G H I J K L M N O P Q R S T U V W X Y Z # 

Not Sure Tabs (ver.1)

Misc Artists Tabs
 Rating:
4/5 (4 votes)
Not Sure lessons Tabs too difficult? Try these video lessons and learn fast
                Okay, I actually wrote the tabs to this song, Lindsey wrote all the lyrics, and I have to say that she has potential to me a great, I repeat, GREAT musician if she sets her heart on it.
so here it is

Main Riff.
e--------------------------------------------------------
B--------------------------------------------------------
G--------------------------2-0---------------------------
D---3-3-----3-3---0-3-3--------3-3-----3-3-3--3-3---0-3-3
A-3-----3-3-----3-------3-3--------3-3-------3----3------
E--------------------------------------------------------
             
e-----------
B-----------
G-0-2-0-----
D-------3-3-
A-----------
E-----------

Main Refrain
e---------------------------------------------------
B-1-1-1-----------------------------1-1-1-----------
G-------3-2-0-2-0---------0-2-0-----------3-2-0-2-0-
D-----------------3-0-3-3-------3-3-----------------
A---------------------------------------------------
E---------------------------------------------------

e---------------------
B---------------------
G-----------2-3-2-----
D-3-0-3-3-3-------3-3-
A---------------------
E---------------------
Repeat that throughout the song until you reach the final refrain at which you play this.......:
e-------------------------------------------------------
B-1-1-1-----------------------------1-1-1-1-3-----------
G-------3-2-0-2-0---------0-2-0---------------2-0-------
D-----------------3-0-3-3-------3-3---------------3-3-0-
A-------------------------------------------------------
E-------------------------------------------------------

e-------------------------------------------------
B-------------1(hold)-----------------------------
G-------2-3-2---------(slide slowly down the notes)
D-3-3-3--------------------------------------------
A--------------------------------------------------
E--------------------------------------------------

That is all there is right now for the tabs, I have yet to come up with the chords
I LOVE YOU LINDSEY.  AND I WISH YOU THE BEST OF LUCK.
            
Submit corrections

comments powered by Disqus
↑ Back to top | Misc Artists Tabs for Not Sure. Lyrics for acoustic guitar and electric guitar. Tablatures and chords are parodies/interpretations of the original songs. You may use it for private study, scholarship, research or language learning purposes only