» » »

Misc Artists, Nothing Worth Saying Tabs (ver.1)

Artists:  A B C D E F G H I J K L M N O P Q R S T U V W X Y Z # 

Nothing Worth Saying Tabs (ver.1)

Misc Artists Tabs
 Rating:
4/5 (4 votes)
Nothing Worth Saying lessons Tabs too difficult? Try these video lessons and learn fast
                Drop D Tuning Folks. I wrote this tasty riff while thinging of how beauty often leaves nothing to say.
Enjoy and play for the ladies.


D----------------------------------------------0-------------------------------------------------------------------------------------------
A----2-----------------2p0------------------------------------------------------------------2----------------------2p0-----------------
D------4------------4-------4------------4-------4---------------------------------4----------4----------------4--------4--------------G--------0--------0------------0--------0----------0-------------0------0-----------------------0-----------0-------------0------------
B----------3---------------------3--------------------3--------3-------3-------3-------------------3-------------------------3----------
E-------------------------------------------------------------0-------0-------0------------------------------------------------------------


D ----------0-------------------X--0------X-----0----------0--0--0-----|--0--0--0--0--|   
A -------------------------------2--0------2------0----------0--0--0-----|--0--0--0--0--|
D -----4-------4----------------4--4------4------4----------2--2--2-----|--2--2--2--2--|
G ---0------------0------------- 0--2------0------2----------0--0--0-----|--1--2--1--0--|
B -------------------3-----------3--3------3------3----------1--1--3-----|--0--0--0--1--|
E --------------------------------0--0------0------0----------0--0--0-----|--0--0--0--0--|


D----------------------------------------------0-------------------------------------------------------------------------------------------
A----2-----------------2p0------------------------------------------------------------------2----------------------2p0-----------------
D------4------------4-------4------------4-------4---------------------------------4----------4----------------4--------4--------------G--------0--------0------------0--------0----------0-------------0------0-----------------------0-----------0-------------0------------
B----------3---------------------3--------------------3--------3-------3-------3-------------------3-------------------------3----------
E-------------------------------------------------------------0-------0-------0------------------------------------------------------------


D ----------0-----------------------------------------0--------------------------------------------------------------------------------------
A ----------------------------------------------5--------------------------------------------------------------------------------------------
D -----4-------4--------------------------4-------------------------------------------------------------------------------------------------
G ---0--------------0-----------------0-----------------------------------------------------------------------------------------------------
B -----------------------3-------------------------------------------------------------------------------------------------------------------
E --------------------------------------------------------------------------------------------------------------------------------------------


Thanks Folks
            
Submit corrections

comments powered by Disqus
↑ Back to top | Misc Artists Tabs for Nothing Worth Saying. Lyrics for acoustic guitar and electric guitar. Tablatures and chords are parodies/interpretations of the original songs. You may use it for private study, scholarship, research or language learning purposes only