» » »

Kennys Song Tabs (ver.1)

Artists:  A B C D E F G H I J K L M N O P Q R S T U V W X Y Z # 

Kennys Song Tabs (ver.1)

Misc Artists
Rating:
0/5 (0 votes)

Hard to play? Try these video lessons and learn fast.
                kenny's song
(well i saw all of the
tabs and i couldnt find 
anymore tabs that i wanted              (NOTE:READ TABS IN FULL SCREEN)
to learn at the time and i wondered
if there were any other people like me 
so i thought that i would give this a try
WELL HERE IT GOES)

ACOUSTIC 
 Am  C  Em  G   
 0   0  0   3
 1   1  0   0
 2   0  0   0
 2   2  2   0
 0   3  2   2
 0   0  0   3

      Am              C                 Am                         Em 
E|-------------------------------------|--------------------------------------|
B|------1-------1---------1-------1----|-----1-------1---------1-------0------|
D|---2---2-2-2---2-----0---0-0-0---0--0|--2---2-2-2---2-----0---0-0-0---0-----|
A|----2---2---2---------2---2---2---2--|---2---2---2---------2---2---2--------|
G|--0--0----0--0--0-2-3--3----3--3-----|-0--0----0--0--0-2-3--3----2--2--3-2-0|
E|-------------------------------------|--------------------------------------|
    Am          Am                                  C
E|--------------0-----0-----------0-----0-----------0-----0-----------0-----0---------|
B|-------1------1-----1-----------1-----1-----------1-----1-----------1-----1---------|
D|----2---2-2---2-----2-----------2-----2-----------0-----0-----------2-----2---------|
A|-----2---2----2--2--2--2--2--2--2--2--2--2--2--2--2--2--2--2--2--2--2--2--2--2--2--2| G|------0-------0--0--0--0--0--0--0--0--0--0--0--0--3--3--3--3--3--3--3--3--3--3--3--3|
E|--------------0-----0-----------0-----0-----------0-----0-----------0-----0---------|
     Em                                  Am          C  Am
E|---0-----0-----------0-----0-----------0-----0-----0--0-----0|
B|---0-----0-----------0-----0-----------1-----1-----1--1-----1|
D|---0-----0-----------0-----0-----------2-----2-----0--2-----2|
A|---2--2--2--2--2--2--2--2--2--2--2--2--2--2--2--2--2--2--2--2|  X2
G|---2--2--2--2--2--2--2--2--2--2--2--2--0--0--0--0--3--0--0--0|
E|---0-----0-----------0-----0-----------0-----0-----0--0-----0|
      Am              G                  Am                C
E|--------------------------------------------------------------------------|
B|-------1-------1---------0-------0---------1-------1---------1-------1----|
D|----2---2-2-2---2-2---0---0-0-0---0-0---2---2-2-2---2-----0---0-0-0---0-0-|
A|-----2---2---2---2-----0---0---0---0-----2---2---2---------2---2---2---2--| G|---0--0----0--0------2--2----2--2------0--0----0--0--0-2-3--3----3--3-----| E|--------------------------------------------------------------------------|
     Am                 C       Em         Am        Am
E|---------------------------------------------------0-----0-----------0-----0----------|
B|-------1-------1---------1--------0---------1------1-----1-----------1-----1----------|
D|----2---2-2-2---2-----0---0-0--0---0-----2---2-2---2-----2-----------2-----2----------|
A|-----2---2---2---------2---2----2---------2---2----2--2--2--2--2--2--2--2--2--2--2--2-|
G|---0--0----0--0--0-2-3--3-----2--2--3-2-0--0-------0--0--0--0--0--0--0--0--0--0--0--0-|
E|---------------------------------------------------0-----0-----------0-----0----------|
    C                                  Em                                 
E|--0-----0-----------0-----0----------0-----0-----------0-----0-----------|
B|--1-----1-----------1-----1----------0-----0-----------0-----0-----------|
D|--0-----0-----------0-----0----------0-----0-----------0-----0-----------|
A|--2--2--2--2--2--2--2--2--2--2--2--2-2--2--2--2--2--2--2--2--2--2--2--2--|
G|--3--3--3--3--3--3--3--3--3--3--3--3-2--2--2--2--2--2--2--2--2--2--2--2--|
E|--0-----0-----------0-----0----------0-----0-----------0-----0-----------|

    Am          C  Am
E|--0-----0-----0--0-----0|
B|--1-----1-----1--1-----1|
D|--0-----0-----0--0-----0|
A|--2--2--2--2--2--2--2--2|  X2                                          G|--3--3--3--3--3--3--3--3|
E|--0-----0-----0--0-----0|
            
Hard to play? Try these video lessons and learn fast. | Correct




comments powered by Disqus
↑ Back to top | Tablatures and chords are parodies/interpretations of the original songs. You may use it for private study, scholarship, research or language learning purposes only