» » »

Misc Artists, Hero Tabs (ver.1)

Artists:  A B C D E F G H I J K L M N O P Q R S T U V W X Y Z # 

Hero Tabs (ver.1)

Misc Artists Tabs
 Rating:
4/5 (4 votes)
Hero lessons Tabs too difficult? Try these video lessons and learn fast
1
                tuning : 1/2 step down


verse

guitar 1 acoustic
--0--0-0-0-0--0-0-0-0--0-0-0-0--0-0-0-1--1-1-1-1--1-1-1-1--1-1-1-1--1-1-1-0---
--1--1-1-1-1--1-1-1-1--1-1-1-1--1-1-1-1--1-1-1-1--1-1-1-1--1-1-1-1--1-1-1-1---  2x
--2--2-2-2-2--2-2-2-2--2-2-2-2--2-2-2-2--2-2-2-2--2-2-2-2--2-2-2-2--2-2-2-2---
--2--2-2-2-2--2-2-2-2--2-2-2-2--2-2-2-3--3-3-3-3--3-3-3-3--3-3-3-3--3-3-3-2---
--0--0-0-0-0--0-0-0-0--0-0-0-0--0-0-0-3--3-3-3-3--3-3-3-3--3-3-3-3--3-3-3-0---
--0--0-0-0-0--0-0-0-0--0-0-0-0--0-0-0-1--1-1-1-1--1-1-1-1--1-1-1-1--1-1-1-0---

--4--4-4-4-4--4-4-4-6--6-6-6-6--6-6-6-1-1-1-1-1-1-1-1-1-1-------------
--4--4-4-4-4--4-4-4-6--6-6-6-6--6-6-6-1-1-1-1-1-1-1-1-1-1-------------  1x
--5--5-5-5-5--5-5-5-7--7-7-7-7--7-7-7-2-2-2-2-2-2-2-2-2-2-------------
--6--6-6-6-6--6-6-6-8--8-8-8-8--8-8-8-3-3-3-3-3-3-3-3-3-3-------------
--6--6-6-6-6--6-6-6-8--8-8-8-8--8-8-8-3-3-3-3-3-3-3-3-3-3-------------
--4--4-4-4-4--4-4-4-6--6-6-6-6--6-6-6-1-1-1-1-1-1-1-1-1-1-------------

guitar 2 electric                  (enters here)
--------------------------------------3-3-3-3-3-3-3-3-3-3-------------
--------------------------------------3-3-3-3-3-3-3-3-3-3-------------
--------------------------------------1-1-1-1-1-1-1-1-1-1-------------


chorus

guitar1
--4---4-4-4-4--4-4-4-6--6-6-6-6--6-6-6-8---8--8--8--8---8--8--8--8---8--8--8--8---8--8--8--4---
--4---4-4-4-4--4-4-4-6--6-6-6-6--6-6-6-8---8--8--8--8---8--8--8--8---8--8--8--8---8--8--8--4---
--5---5-5-5-5--5-5-5-7--7-7-7-7--7-7-7-9---9--9--9--9---9--9--9--9---9--9--9--9---9--9--9--5---
--6---6-6-6-6--6-6-6-8--8-8-8-8--8-8-8-10--10-10-10-10--10-10-10-10--10-10-10-10--10-10-10-6---
--6---6-6-6-6--6-6-6-8--8-8-8-8--8-8-8-10--10-10-10-10--10-10-10-10--10-10-10-10--10-10-10-6---
--4---4-4-4-4--4-4-4-6--6-6-6-6--6-6-6-8---8--8--8--8---8--8--8--8---8--8--8--8---8--8--8--4---

--4-4-4-4--4-4-4-6--6-6-6-6--6-6-6--1-1-1-1-1-1-1-1-1-1-1-1-------------------
--4-4-4-4--4-4-4-6--6-6-6-6--6-6-6--1-1-1-1-1-1-1-1-1-1-1-1-------------------
--5-5-5-5--5-5-5-7--7-7-7-7--7-7-7--2-2-2-2-2-2-2-2-2-2-2-2-------------------
--6-6-6-6--6-6-6-8--8-8-8-8--8-8-8--3-3-3-3-3-3-3-3-3-3-3-3-------------------
--6-6-6-6--6-6-6-8--8-8-8-8--8-8-8--3-3-3-3-3-3-3-3-3-3-3-3-------------------
--4-4-4-4--4-4-4-6--6-6-6-6--6-6-6--1-1-1-1-1-1-1-1-1-1-1-1-------------------

guitar 2
--6-6-6-6-6-6--8-8-8-8-8-8--10-10-10-10-10-10-10-10-10-10-10-10-------------
--6-6-6-6-6-6--8-8-8-8-8-8--10-10-10-10-10-10-10-10-10-10-10-10-------------
--4-4-4-4-4-4--6-6-6-6-6-6--8--8--8--8--8--8--8--8--8--8--8--8--------------

--6-6-6-6-6-6--8-8-8-8-8-8--3-3-3-3-3-3-3-3-3-3-3-3-------------
--6-6-6-6-6-6--8-8-8-8-8-8--3-3-3-3-3-3-3-3-3-3-3-3-------------
--4-4-4-4-4-4--6-6-6-6-6-6--1-1-1-1-1-1-1-1-1-1-1-1-------------


interlude - hard part

guitar 1
--4-4-4-4-4-4--6-6-6-6-6-6--8--8--8--8--8----------
--4-4-4-4-4-4--6-6-6-6-6-6--8--8--8--8--8----------
--5-5-5-5-5-5--7-7-7-7-7-7--9--9--9--9--9----------
--6-6-6-6-6-6--8-8-8-8-8-8--10-10-10-10-10---------
--6-6-6-6-6-6--8-8-8-8-8-8--10-10-10-10-10---------
--4-4-4-4-4-4--6-6-6-6-6-6--8--8--8--8--8----------

--4-4-4-4-4-4--6-6-6-6-6-6--1-1-1-1-1-1-1-1-1-1-1-1-------------
--4-4-4-4-4-4--6-6-6-6-6-6--1-1-1-1-1-1-1-1-1-1-1-1-------------
--5-5-5-5-5-5--7-7-7-7-7-7--2-2-2-2-2-2-2-2-2-2-2-2-------------
--6-6-6-6-6-6--8-8-8-8-8-8--3-3-3-3-3-3-3-3-3-3-3-3-------------
--6-6-6-6-6-6--8-8-8-8-8-8--3-3-3-3-3-3-3-3-3-3-3-3-------------
--4-4-4-4-4-4--6-6-6-6-6-6--1-1-1-1-1-1-1-1-1-1-1-1-------------

guitar 2
---------------------------------------------------
---------------------------------------------------
---------------------------------------------------
--6-6-6-6-6-6--8-8-8-8-8-8--10-10-10-10-10---------
--6-6-6-6-6-6--8-8-8-8-8-8--10-10-10-10-10---------
--4-4-4-4-4-4--6-6-6-6-6-6--8--8--8--8--8----------

--6-6-6-6-6-6--8-8-8-8-8-8--3-3-3-3-3-3-3-3-3-3-3-3-------------
--6-6-6-6-6-6--8-8-8-8-8-8--3-3-3-3-3-3-3-3-3-3-3-3-------------
--4-4-4-4-4-4--6-6-6-6-6-6--1-1-1-1-1-1-1-1-1-1-1-1-------------


Solo
--6p5-6p5-6p5-3---6p6-6p5-6p5-1--3---6---10p8-10p8-10p8-6---10p8-10p8-10p8-5--3-6-8-10--


interlude - soft part

guitar 1
----4-----------4-------8-6----------------------
--------------4-------------6--------------------
------------5-----------------7------------------
--------6-------------8---------8----------------
------6---6---------8-------------8--------------
----4-------------6------------------------------

------------10-8-----------10-8------------------
-----------------8--------------8----------------
----------------------------------9--------------
---------10-------------10----------10-----------
------10-------------10----------------10--------
----8--------------8-----------------------------


----------4-----------8-6------------------------
------------4-------------6----------------------
--------------5-------------7--------------------
--------6-----------8---------8------------------
------6-----------8-------------8----------------
----4-----------6--------------------------------

----1-1-1-1-1-1-1-1-1-1------------
----1-1-1-1-1-1-1-1-1-1------------
----2-2-2-2-2-2-2-2-2-3------------
----3-3-3-3-3-3-3-3-3-3------------
----3-3-3-3-3-3-3-3-3-3------------
----1-1-1-1-1-1-1-1-1-1------------

guitar 2
-----------------------------------
-----------------------------------
-----------------------------------
----3-3-3-3-3-3-3-3-3-3------------
----3-3-3-3-3-3-3-3-3-3------------
----1-1-1-1-1-1-1-1-1-1------------


end

guitar 1
--0------
--1------
--0------
--2------
--3------
--0------
            
Submit corrections

comments powered by Disqus
↑ Back to top | Misc Artists Tabs for Hero. Lyrics for acoustic guitar and electric guitar. 1 Tablatures and chords are parodies/interpretations of the original songs. You may use it for private study, scholarship, research or language learning purposes only