» » »

Misc Artists, Everyday Tabs (ver.1)

Artists:  A B C D E F G H I J K L M N O P Q R S T U V W X Y Z # 

Everyday Tabs (ver.1)

Misc Artists Tabs
Rating:
0/5 (0 votes)
Everyday lessons Tabs too difficult? Try these video lessons and learn fast
                Song Title: Everyday



Intro

e---------------------------------------------------------------------------------
b---------------------------------------------------------------------------------
g---------------------------------------------------------------------------------
d---------------------------------------------------------------------------------
a--3h4-----5-5-5-5-4-4-4-4------3h4-----5-5-5-5---3-3-3-3---3h4--5-5-5-5---7------
e----------3-3-3-3-2-2-2-2--------------3-3-3-3---5-5-5-5--------3-3-3-3---5------
           2x                                          1x
  
1st verse
e---------------------------------------------------------------------------------
b---------------------------------------------------------------------------------
g---------------------------------------------------------------------------------
d---------------------------------------------------------------------------------
a-----------6-7-6-----6-7-6-----6-7-6-----4-5-4----4-5-4----4-5-4-------4-5-4-----
e-------5-----------5---------5---------3--------3--------3-----------------3-----
          
e---------------------------------
b---------------------------------
g---------------------------------
d---------------------------------
a-----8-9-8-----8-9-8-----8-9-8---
e--7----------7---------7---------


2nd verse
e---------------------------------------------------------------------------------
b---------------------------------------------------------------------------------
g---------------------------------------------------------------------------------
d----4---4---5---4----6---6---7---6----4---4---5---4----4---4---------------------
a--2---2---2---2----4---4---4---4----2---2---2---2--------4---4-------------------
e---------------------------------------------------------------------------------


bass solo

chorus      Repeat 2x
e---------------------------------------------------------------------------------
b---------------------------------------------------------------------------------
g---------------------------------------------------------------------------------
d---------------------------------------------------------------------------------
a---------------------------------------------------------------------------------
e--555-444-666-555-444-555-444----555-444-666-555-666-555-666---------------------

e---------------------------------------------------------------------------------
b---------------------------------------------------------------------------------
g---------------------------------------------------------------------------------
d---------------------------------------------------------------------------------
a------------------666-555-444-------------------444-555-66666666666--------------
e--555-444-666-555---------------555-444-666-555----------------------------------

2nd verse


3rd verse
e--------------------------------------------------------------------------------
b--------------------------------------------------------------------------------
g--------------------------------------------------------------------------------
d--------------------------------------------------------------------------------
a--7xxxx-7xxxx-7--------5xxxx-5xxxx-5--------9xxxx-9xxxx-9-----------------------
e--5xxxx-5xxxx-5-6-5-7--3xxxx-3xxxx-3-4-3-5--7xxxx-7xxxx-7-8-7-9-----------------

e-------------------------------
b-------------------------------
g-------------------------------
d-------------------------------
a-7xxxx-7xxxx-7-----------------
e-5xxxx-5xxxx-5-6-5-7-----------

Chorus

Solo
e-------------------------------------------9h10----------------------------------
b--12h14-13-12-13----------------------9h10------9h10-----------------------------
g------------------12h14-13-12-13/9h10----------------9h10/15151515-13131313-99999
d---------------------------------------------------------------------------------
a---------------------------------------------------------------------------------
e---------------------------------------------------------------------------------

e---------------------------------------------------------------------------------
b---------------------------------------------------------------------------------
g---17171717-15151515-13131313/17-16h17-15h16-14h15-13h14-12h13-11h12h12h12h12h12-
d---------------------------------------------------------------------------------
a---------------------------------------------------------------------------------
e---------------------------------------------------------------------------------

Outro
e---------------------------------------------------------------------------------
b---------------------------------------------------------------------------------
g---------------------------------------------------------------------------------
d---------------------------------------------------------------------------------
a--9xx-9xx-9xx-9xx-7xx-5xx-1xx----------------------------------------------------
e--7xx-7xx-7xx-7xx-5xx-3xx-3xx--1--------------------------------------------------

                               let ring
            
Submit corrections

comments powered by Disqus
↑ Back to top | Misc Artists Tabs for Everyday. Lyrics for acoustic guitar and electric guitar. Tablatures and chords are parodies/interpretations of the original songs. You may use it for private study, scholarship, research or language learning purposes only