» » »

Easy Blues Tabs (ver.1)

Artists:  A B C D E F G H I J K L M N O P Q R S T U V W X Y Z # 

Easy Blues Tabs (ver.1)

Misc Artists
Rating:
0/5 (0 votes)

Hard to play? Try these video lessons and learn fast.
                (Riff)
e:-----------------------------|
B:-----------------------------|
G:-----------------------------|
D:-----------------------------|
A:-----------------------------|
E:-0--0----3--3----5--5----3--3|

e:-----------------------------|
B:-----------------------------|
G:-----------------------------|
D:-----------------------------|
A:-----------------------------|
E:-0--0----3--3----5--5----3--3|

e:-----------------------------|
B:-----------------------------|
G:-----------------------------|
D:-----------------------------|
A:-0--0----3--3----5--5----3--3|
E:-----------------------------|

e:-----------------------------|
B:-----------------------------|
G:-----------------------------|
D:-----------------------------|
A:-0--0----3--3----5--5----3--3|
E:-----------------------------|

e:-----------------------------|
B:-----------------------------|
G:-----------------------------|
D:-----------------------------|
A:-----------------------------|
E:-0--0----3--3----5--5----3--3|

e:-----------------------------|
B:-----------------------------|
G:--------------------------0-2|
D:---------------------0--2----|
A:-----------------0-----------|
E:-0--0----3--3----------------|

e:-----------------------------|
B:--0--0-0--0------------------|
G:-------------3--3-3-3--3--0--|
D:-----------------------------|
A:-----------------------------|
E:-----------------------------|

e:-----------------------------|
B:-----------------------------|
G:-----------------------------|
D:--2--0--2~~~-----------------|
A:----------------2--1----0----|
E:----------------------------0|


This is a good riff to play for learners, I constructed 
this from a box I blues.

                    ..::Rock On!::..
            
Hard to play? Try these video lessons and learn fast. | Correct




comments powered by Disqus
↑ Back to top | Tablatures and chords are parodies/interpretations of the original songs. You may use it for private study, scholarship, research or language learning purposes only