» » »

Driving One Of Your Cars Tabs (ver.1)

Artists:  A B C D E F G H I J K L M N O P Q R S T U V W X Y Z # 

Driving One Of Your Cars Tabs (ver.1)

Misc Artists
Rating:
0/5 (0 votes)

Hard to play? Try these video lessons and learn fast.
                (Riff)
E||--3--3--3--2--2--2--2--2--|--3--3--3--2--2--2--2--2--|
B||--0--0--0--0--0--0--0--0--|--1--1--1--1--1--1--1--1--|
G||--------------------------|--------------------------|
D||--------------------------|--------------------------|
A||--------------------------|--------------------------|
E||--------------------------|--------------------------|


                                                       
--3--3--3--2--2--2--2--2--|--3--3--3--2--2--2--2--2--||
--3--3--3--3--3--3--3--3--|--3--3--3--3--3--3--3--3--||
--------------------------|--------------------------||
--------------------------|--------------------------||
--------------------------|--------------------------||
--------------------------|--------------------------||


This is just the opening riff, which is played several times in the song,

Keep up the playing!
            
Hard to play? Try these video lessons and learn fast. | Correct




comments powered by Disqus
↑ Back to top | Tablatures and chords are parodies/interpretations of the original songs. You may use it for private study, scholarship, research or language learning purposes only