» » »

Cool Instrumental Tabs (ver.1)

Artists:  A B C D E F G H I J K L M N O P Q R S T U V W X Y Z # 

Cool Instrumental Tabs (ver.1)

Misc Artists
Rating:
0/5 (0 votes)

Hard to play? Try these video lessons and learn fast.
                (8th notes all through, slides from 3/2 on G and A strings are 16th notes)

E|------------0------------------0------------------0------0------------0---------------------0---------------0-------------
B|----------1---1--1---------1----1--------------1---1-------1--------1--1---1--------------1--1---1-------1---1---1------
G|2------2-------2----2--2--------------------2---------2-----------2-------2-------------2------2----2--2------2---2----
D|------------------------------------------------------------------------------------------------------------------------------
A|----0----------------0-------------0-2-3----------------------3----------------3\2-0------------------0-----------------
E|------------------------------------------------------------------------------------------------------------------------------

E|---------0-------------0---------------0----0--------0--------------0-----------0--------------0---0-----0---------------
B|-------1---1--1------1--1------------1--1----1-----1--1--1--------1--1--1-----1--1--1--------1--1---1---1-1--1----------
G|-----2-------2--2--2---------------2-----2-------2-----2--------2-----2--2--2-----2--------2-----2----2----2------------
D|--0---------------0-------0-0-2-3--------------3------------3-2-----------2-----------2-3------------3-------------------
A|------------------------------------------------------------------------------------------------------------------------------
E|------------------------------------------------------------------------------------------------------------------------------

E|-------------0-----------------0-------3---2---3--------0------------------------------------------------------------------
B|-----------1--1--------------1--1--1----1---1---1-------1------------------------------------------------------------------
G|---------2------------------2----2--2----2---2---2------2-----------------------------------------------------------------
D|--3\2-0-------------------------------------------------2------------------------------------------------------------------
A|------------------0-3-2-0-------------------------------0-----------------------------------------------------------------
E|--------------------------------------------------------0-----------------------------------------------------------------
                                                                                 (hold)  
strum these chords, try to use a moving powerful rythm. 
(in this order for 4 beats apiece)

0     3      2      3
1     0      3      3
2     0      2      2
2     0      0      0
x     2      x      x
x     3      x      x

i wrote this song myself. it sounds best acoustically, though i have recorded it electrically and even added some synthesized back effects which was really cool. 
i tried to help you out with timing as much as i could. 
if you play it right and with the right feel and emotion it is a really great piece. 

sorry if this tab looks a little sketchy i did my best to clean it up because copying and pasting on here really butchers it. :) have fun
            
Hard to play? Try these video lessons and learn fast. | Correct




comments powered by Disqus
↑ Back to top | Tablatures and chords are parodies/interpretations of the original songs. You may use it for private study, scholarship, research or language learning purposes only