» » »

Misc Artists, Andys Sweet Acoustic Song Tabs (ver.1)

Artists:  A B C D E F G H I J K L M N O P Q R S T U V W X Y Z # 

Andys Sweet Acoustic Song Tabs (ver.1)

Misc Artists Tabs
Rating:
0/5 (0 votes)
Andys Sweet Acoustic Song lessons Tabs too difficult? Try these video lessons and learn fast
                Eb/E                Gb5/Db               Ebsus2                  D
      0 6 x 0 4 3          x 4 4 6 2 2          x 6 x x 6 x          x 5 x x 3 x

           C                    B                   Eb
      x 3 x x 1 x          x 2 x x 0 x          x x 1 0 4 3

Gtr I (E A D G B E) - 'Untitled'
Gtr II (E A D G B E) - 'Untitled'

 4/4
  Gtr I
  E E E E E E E E   E E E E E E E E   E E E E E E E E   E E E E E E E E
|-----------------|-----------------|-----------------|-----------------|
|-6-----4-----6---|-3-----6-----4---|-1-----4-----1---|-0-----1-----3-4-|
|---0-----0-----0-|---0-----0-----0-|---0-----0-----0-|---0-----0-------|
|-----------------|-----------------|-----------------|-----------------|
|-6---6-----6-----|-5---5-----5-----|-3---3-----3-----|-2---2-----2-----|
|-----------------|-----------------|-----------------|-----------------|


    E E E E E E E E   E E E E E E E E   E E E E E E E E   E E E E E E E E
||------------------|-----------------|-----------------|------------------||
||o-6-----4-----6---|-3-----6-----4---|-1-----4-----1---|-0-----1-----3-4-o||
||----0-----0-----0-|---0-----0-----0-|---0-----0-----0-|---0-----0--------||
||------------------|-----------------|-----------------|------------------||
||o-6---6-----6-----|-5---5-----5-----|-3---3-----3-----|-2---2-----2-----o||
||------------------|-----------------|-----------------|------------------||
|
|   Gtr II
|   E E E E E E Q     E E E E E E Q     E E E E E E Q     E E E E E E Q
||--------6-----6---|-------6-----6---|-------4-----4---|-------3-----4----||
||o-6-------6-------|-3-------3-------|-1-------1-------|-0-------0-------o||
||----0-------------|---0-------------|---0-------------|---0--------------||
||------------------|-----------------|-----------------|------------------||
||o-----6-----6-----|-----5-----5-----|-----3-----3-----|-----2-----2-----o||
||------------------|-----------------|-----------------|------------------||


Duration Legend
---------------
W - whole; H - half; Q - quarter; E - 8th; S - 16th; T - 32nd; X - 64th; a - acciaccatura
+ - note tied to previous; . - note dotted; .. - note double dotted
Uncapitalized letters represent notes that are staccato (1/2 duration)
Irregular groupings are notated above the duration line
Duration letters will always appear directly above the note/fret number it represents the
duration for.  Duration letters with no fret number below them represent rests.  Multi-
bar rests are notated in the form Wxn, where n is the number of bars to rest for.  Low
melody durations appear below the staff


Misc Legend
-----------
 |  - bar
||  - double bar
||o - repeat start
o|| - repeat end
*|  - double bar (ending)


***************************************************************************************
*******************************************************************
            

comments powered by Disqus
↑ Back to top | Misc Artists Tabs for Andys Sweet Acoustic Song. Lyrics for acoustic guitar and electric guitar. Tablatures and chords are parodies/interpretations of the original songs. You may use it for private study, scholarship, research or language learning purposes only