» » »

Misc, Romeo And Juliet Tabs (ver.1)

Artists:  A B C D E F G H I J K L M N O P Q R S T U V W X Y Z # 

Romeo And Juliet Tabs (ver.1)

Misc Tabs
 Rating:
4/5 (4 votes)
Romeo And Juliet lessons Tabs too difficult? Try these video lessons and learn fast
1
                (Theme)
Romeo and Juliet Theme
1968 Dir. Franco Zeffirelli


-9--12--11------------------9v----9--------------------------------------------------
------------9v----9--12--9-----------12--10--12v----12--10--9------9--------------9v-


-9--12--11------------------9v----9--14v--11v-------12--11--9-----12--11--9------9v-
------------9v----9--12--9-----------------------9-------------12------------12-----


-----12v-------10v----12--13v----10--12v--------10v--------------------------------
-12--------12-------------------------------12--------10--12v----9--11v-------99v--

-9--12--11------------------9v----9--------------------------------------------------
------------9v----9--12--9-----------12--10--12v----12--10--9------9--------------9v-


-9--12--11------------------9v----9--14v--11v-------12--11--9-----12--11--9------9v-
------------9v----9--12--9-----------------------9-------------12------------12-----


-5--8--7-----------------5v----5----------------------------------------------------
----------5v----5--8--5-----------8--6--8v----8--6--5--------5-----------5v---------
-------------------------------------------------------8v-------8--6--8-------------


-5--8--7---------------5v--5--10v--7v-------8--7--5----8--7--5v-----5v--------------
----------5v--5--8--5--------------------5----------8------------8------------------


-----12v-------10v----12--13v----10--12v--------10v--------------------------------
-12--------12-------------------------------12--------10--12v----9--11v-------99v--


-9--12--11------------------9v----9--------------------------------------------------
------------9v----9--12--9-----------12--10--12v----12--10--9------9--------------9v-
            
Submit corrections

comments powered by Disqus
↑ Back to top | Misc Tabs for Romeo And Juliet. Lyrics for acoustic guitar and electric guitar. 1 Tablatures and chords are parodies/interpretations of the original songs. You may use it for private study, scholarship, research or language learning purposes only