» » »

Misc, Intermediate - Tristram Tabs (ver.1)

Artists:  A B C D E F G H I J K L M N O P Q R S T U V W X Y Z # 

Intermediate - Tristram Tabs (ver.1)

Misc Tabs
Rating:
0/5 (0 votes)
Intermediate - Tristram lessons Tabs too difficult? Try these video lessons and learn fast
                TRISTRAM - By Matt Uelmen - Diablo

   |-0---0---0---0---0---6---0---6-|-0----0*---0---0---0--------------|
   |-0---4---0---4---0---5---0---5-|-0----0*---4---0---4--------------|
   |-2---2---2---2---2---3---2---3-|-2--2*-----2---2---2--------------|
   |-2---1---2---1---3---4---3---4-|-2--2*-----1---2---1--------------|
   |-0---0---0---0---0-------0-----|-0---------0---0---0--------------|
   |-------------------------------|----------------------------------|
     
   |----0---------------0----------|------0---------------0-----------|
   |----0---0---0-------0---0---0--|------0---0---0-------0---0---0---|
   |--2---2---2---2---2---2---2----|----3---3---3---3---3---3---3-----|
   |3---------------3--------------|-3/4--------------4-------------4\\|
   |-------------------------------|----------------------------------|
   |-------------------------------|----------------------------------|
  
   |----0---------------0----------|------0-------0-----0---0---------|
   |----0---0---0-------0---0---0--|------0-------0-----0---0---------|
   |--2---2---2---2---2---2---2----|----3---3---3---3---3---3---------|
   |3---------------3--------------|-3/4------2---------0---0---------|
   |-------------------------------|------------------------4---------|
   |-------------------------------|----------------------------------|
                                
   |-------------------------------|------0---------------0-----------|
   |----2-3-2-----------2-3-2------|----3---3-----------3---3---------|
   |----------4-3-4-----------4-3-4|--2-------2---2---2-------2---2---|
   |--4---------------4------------|3-----------3---3-----------3-----|
   |2---------------2--------------|----------------------------------|
   |-------------------------------|----------------------------------|
 
   |-------------------------------|----2--------5--------8--------11-|
   |----0-1-0-----------0-1-0------|--0---0----0---0----0---0----0---0|
   |----------2-1-2-----------2-1-2|----------------------------------|
   |--2---------------2------------|1--------4--------7--------10-----|
   |0---------------0--------------|----------------------------------| 
   |-------------------------------|----------------------------------|

   |7-7-7-7-7-7-7-7-6-6-6-6-6-6-6-6|3-3-3-3-2-2-2-2-2-2-2-2-2-2-2-2-2-|
   |0-0-0-0-0-0-0-0-0-0-0-0-0-0-0-0|0-0-0-0-0-0-0-0-0-0-0-0-0-0-0-0-0-|
   |-------------------------------|----------------------------------|
   |-------------------------------|----------------------------------| 
   |-------------------------------|----------------------------------|
   |-------------------------------|----------------------------------|

   |0-0-0-0-0-0-0-0-0-0-0-0-0-0-0-0|0-0-0-0-0-0-0-0-0-0-0-0-0-0-0-0-0-|
   |5-5-5-5-5-5-5-5-4-4-4-4-4-4-4-4|1-1-1-1-0-0-0-0-0-0-0-0-0-0-0-0-0-|
   |-------------------------------|------------------------0-0-0-0-0-|
   |-------------------------------|----------------------------------|
   |-------------------------------|----------------------------------|
   |-------------------------------|----------------------------------|
            
Submit corrections

comments powered by Disqus
↑ Back to top | Misc Tabs for Intermediate - Tristram. Lyrics for acoustic guitar and electric guitar. Tablatures and chords are parodies/interpretations of the original songs. You may use it for private study, scholarship, research or language learning purposes only