>
 >
Intermediate - Intermediate - Jamsession Outc

Intermediate - Intermediate - Jamsession Outc Guitar Tabs

Misc - Intermediate - Intermediate - Jamsession Outc chords, tabs, tablatures, lyrics

Guitar lessons | Add/correct | Request | Top 50 tabs Artists:  A B C D E F G H I J K L M N O P Q R S T U V W X Y Z 0-9

Intermediate - Intermediate - Jamsession Outc Guitar Tabs – Misc

CD, Sheet music, Poster

Do you like Intermediate - Intermediate - Jamsession Outc? Share with your friends now
Tabs
A little song we wrote in a jam session

Verse 1 (clean)

e---------------------------------------------------------------------
B-----6-----6------6-----6-----------10----10-------------------------
G-----7-----7------7-----7-----------10----10-------9-----10p9--------
D-----7-----7------7-----7-----------10----10------10-----10----10----
A--5-----5------5-----5-----5--7--8------8---------10-----10-------10-
E-----------------------------------------------8------8------------8-

Chorus (Distortion)


e---------------------------------------------------------------
B----6--------------------------------------------5h6p5---------
G-7--7--7--7-7-7--7-7-7--9----3-3-3-3-3-3-3-5-5-5-5-5-5---------
D-7--7--7--7-7-7--7-7-7--9--3-3-3-3-3-3-3-3-5-5-5-5-5-5-10\\5----
A-5--5--5--5-5-5--5-5-5--7--3-3-3-3-3-3-3-3-3-3-3-3-3-3-10\\5----
E---------------------------1-1-1-1-1-1-1-1--------------8\\3----

Verse 2 (clean)

e----------------------------------------------------------------------------------------
B-------6-----------------------10----10---11/10----8------------------------------------
G-------7------------7--9-------10----10---------10---10-9---------9--x--9--x-10---9-----
D----7---------------7--9----10-----------------------------10----10--x-10--x-10--10-----
A-5--------5-5--5-5--5--7--8--------8----8-------------------x-10-------------10--10-----
E------------------------------------------------------------8------------------------8--


Outro (Clean)
(finger picked)

e-10-----------------------------------------8------------8~~----
B-10--------------------------------------10---10---------6~~----
G--------------10-----------------10----------------------7~~----
D-----12----12-----12-----12--14------------------7-------7~~----
A--------12-----------12--12--14---8-10-8-----------7-/4---------
E-10-----------10---------10--12---------------------------------





Comments


Popular Misc tabs & chords
God Rest Ye Merry Gentlemen Bass Tabs
Intermediate - Disaster Bass Tabs
Beginner - Smoke On The Water Tabs
Black & White Tabs
Discombobulate Tabs
Dona Dona 1 Tabs
Edogg Blues Riff Tabs
Entertaining Guitar Riffs Part Vi 2 Tabs
Frere Jacques Intro Tabs
Guitar Accompanyment Tabs


Song lyrics



↑ Back to top | Tablatures and chords are parodies/interpretations of the original songs. You may use it for private study, scholarship, research or language learning purposes only
© 2014 AZChords.com Contact us | Privacy policy | DMCA | Add/correct tabs | Request tabs | Top 50 tabs