>
 >
Intermediate - Fingerpicking Song

Intermediate - Fingerpicking Song Guitar Tabs

Misc - Intermediate - Fingerpicking Song chords, tabs, tablatures, lyrics

Guitar lessons | Add/correct | Request | Top 50 tabs Artists:  A B C D E F G H I J K L M N O P Q R S T U V W X Y Z 0-9

Intermediate - Fingerpicking Song Guitar Tabs – Misc

CD, Sheet music, Poster

Do you like Intermediate - Fingerpicking Song? Share with your friends now
Tabs
This is a fairly simple fingerpicking song i wrote, enjoy
  E |---2-3---2-3---2-3---2-3-------|----0-2---0-2---0-2---0-2---------|
  B |--0-----0-----0-----0----------|---0-----0-----0-----0------------|
  G |-------------------------------|----------------------------------|
  D |-2-----2-----2-----2-----------|--0-----0-----0-----0-------------|
  A |-------------------------------|----------------------------------|
  E |-------------------------------|----------------------------------|

  E |----0----0----0----0-----------|------------------------------3-5-|
  B |---3----3----3----3------------|-----5----5----5----7p5--5---5----|
  G |--0----0----0----0-------------|----0----0----0-------------4-----|
  D |-------------------------------|---4----4----4--------------------|
  A |-3----3----3----3--------------|--5----5----5-------5----3--------|
  E |-------------------------------|----------------------------------|   
 
  E |---2-3---5-3---2-0--3p2p0------|---0-2---0-2---0h2p0---0h2p0------|
  B |--0-----0-----0----------3-----|--0-----0-----0-----3-------3p1p0-|
  G |-------------------------------|-0-----0-----0--------0-----------|
  D |-2-----2-----2-----2-----------|----------------------------------|
  A |-------------------------------|----------------------------------|
  E |-------------------------------|----------------------------------|

  E |----0----3----2---3------------|----------------------------------|
  B |---3----3----3-----3-----------|----5----5-5----------------------|
  G |--0----0----0----0-------------|---0----0------0------------------|
  D |-------------------------------|--4----4---------4----------------|
  A |-3----3----3----3--------------|-5----5----5-5--------------------|
  E |-------------------------------|----------------------------------|

  E |-------------0-------2-----0-2-|-3-----3-2-----0h2p0------------0-|
  B |-1-----1p0-----0----4--4-4-----|-----0-------3---------3p0---0h3-3|
  G |-----2-----2-------2-----------|---0-------0-----------0-----0----|
  D |---2--------------4------------|-2-------0-----------2------------|
  A |-0---------------2-------------|---------------3-----3-----3------|
  E |-------------------------------|----------------------------------|
        
  E |-----0-2-3-----3-2-----0h2p0---|------------0------------------0-2|
  B |-3-3---------0-------3---------|--3p0---0h3---3-----------3-3-3---|
  G |-----------0-------0-----------|--0-----0-------------------------|
  D |---------2-------0-------------|2---------------2-2-2/4-4---------|
  A |-----------------------3-------|3-----3---------3-3-3/5-5---------|
  E |-------------------------------|----------------------------------|
      
  E |-3-----3-2-----0h2p0-----------|-0---0h2p0---------5-3-2h3p2------|
  B |-----0-------3---------3p0--0h3|--3----------3p0-------------3----|
  G |---0-------0-----------0----0--|-------------0---0-------------0--|
  D |-2-------0-----------2---------|----(0)----4-------0-------------4|
  A |---------------3-----3-----3---|-----5----------------------------|
  E |-------------------------------|----------------------------------|
         
  E |-------2-3-----2-3----2-3---2-3|--0-2--0-2--0-2--2h3p2p0----------|
  B |------0-------0------0-----0---|-0----0----0-------------3p1p0----|
  G |-4-----------------------------|-------------------------------2p0|
  D |---0-2-------2-----2------2----|0----0----0------0----------------|
  A |-------------------------------|----------------------------------|
  E |-------------------------------|----------------------------------|





Comments


Popular Misc tabs & chords
Little Blues Bass Thing Bass Tabs
Farther On Up The Road Chords
Lucky Old Sun Chords
Spiderman Subway Song Chords
Beginner - A Good Lick Tabs
Beginner - Up The Freat Board Thing Tabs
Bluesy Endings Tabs
Cool Guitar Tabs
D Generationx Theme Tabs
Dethwing Blues Melody Tabs


Song lyrics



↑ Back to top | Tablatures and chords are parodies/interpretations of the original songs. You may use it for private study, scholarship, research or language learning purposes only
© 2014 AZChords.com Contact us | Privacy policy | DMCA | Add/correct tabs | Request tabs | Top 50 tabs